Oops, an error
Loading. Please wait.

Sports Album Tab Bass Tab

4,118 views 30 this week
no commentswrite comment
1 2 3 4 5
excellent!
x 13
add to favorites
launch autoscroll
font size
0
reset
guitar tuner
Autoscroll
slow
fast
+/-
esc
set tempo
stop
Help us to improve Ultimate-Guitar.com Take our survey!
×
Author
-------------------------------------------------------------------------------
                             Re-Do - Modern Baseball
-------------------------------------------------------------------------------
Tabbed by: Jack McMurtrie

Tuning: Standard

Intro:
"I wanna start from the top..."
G|---------------------------------------------------------------------------|
D|---------------------------------------------------------------------------|
A|---------------------------------------------------------------------------|
E|---5--------9--------10--------13----12------------------------------------|

Verse 1:
"I wanna complete re-do..."
G|---------------------------------------------------------------------------|
D|---------------------------------------------------------------------------|
A|--------------------------------------2(x8)---1(x8)------------------------|
E|---5(x16)---4(x16)---2(x8)---1(x8)-----------------------------------------|

G|---------------------------------------------------------------------------|
D|---------------------------------------------------------------------------|
A|--------------------------------------2------------------------------------|
E|---5(x16)---4(x16)---2(x8)---1(x8)-----------------------------------------|

Chorus:
"Try to..."
G|---------------------------------------------------------------------------|
D|---------------------------------------------------------------------------|
A|---------------------------------------------------------------------------| 
E|---5(x16)---4(x16)---5(x8)-7-7-7-9-9-9-9-9-2(x8)-9-9-9-7-7-7-7-7-----------| x2

Verse 2
"maybe i could just move away..."
G|---------------------------------------------------------------------------|
D|---------------------------------------------------------------------------|
A|------------------------------------22----11-------------------------------|
E|---55------44----44-44--22----11-------------------------------------------|

G|---------------------------------------------------------------------------|
D|---------------------------------------------------------------------------|
A|--------------------------------------2(x8)---1----------------------------|
E|---5(x16)---4(x16)---2(x8)---1(x8)-----------------------------------------|

Chorus
"Try to..."
G|---------------------------------------------------------------------------|
D|---------------------------------------------------------------------------|
A|---------------------------------------------------------------------------| 
E|---5(x16)---4(x16)---5(x8)-7-7-7-9-9-9-9-9-2(x8)-9-9-9-7-7-7-7-7-----------| x2

Outro
G|---------------------------------------------------------------------------|
D|---------------------------------------------------------------------------|
A|--------------------------------------2(x8)---1(x8)------------------------|
E|---5(x16)---4(x16)---2(x8)---1(x8)-----------------------------------------|

G|---------------------------------------------------------------------------|
D|---------------------------------------------------------------------------|
A|--------------------------------------2(x8)---1(x8)------------------------|
E|---5(x16)---4(x16)---2(x8)---1(x8)--------------------5--------------------|



-------------------------------------------------------------------------------
                            Tears Over Beers - Modern Baseball
-------------------------------------------------------------------------------
Tabbed by: Jack McMurtrie

Tuning: Standard

Intro
[wait]
"she's outtta luck for 3 more years"
G|---------------------------------|
D|---------------------------------|
A|----5----5----4--444--4--444--4--|
E|---------------------------------|

G|---------------------------------------------------------------------------|
D|---------------------------------------------------------------------------|
A|---4-44-444(x2)---6-66-666(x2)---5-55-555(x2)---4-44-444(x2)---------------|
E|---------------------------------------------------------------------------|

G|---------------------------------------------------------------------------|
D|---------------------------------------------------------------------------|
A|---4-44-444(x2)---6-66-666(x2)---5-55-555(x2)---4---4---4------------------|
E|---------------------------------------------------------------------------|

Verse 1:
[wait]
"That girl who's next to me"
G|------------------------------|
D|------------------------------|
A|---4s11---9s6---4s5---5s4-----|
E|------------------------------|

G|---------------------------------------------------------------------------|
D|---------------------------------------------------------------------------|
A|---4s11---9s6---5----5--5--4--4----4---------------------------------------|
E|---------------------------------------------------------------------------|

Chorus 
"she said all I can hope for"
G|---------------------------------------------------------------------------|
D|---------------------------------------------------------------------------|
A|---4---6----------4---6---------------------------4---6--------------------|
E|-----------2--------------2---4---6---4---2---4-----------2----------------|

Post Chorus
"he needed more than me"
G|---------------------------------------------------------------------------|
D|---------------------------------------------------------------------------|
A|---4---6----------4---6------------4---6------------4---6------------------|
E|-----------2--------------2----------------2----------------2--------------|

Bridge
[wait]
"That girl who's next to me"
G|---------------------------------------------------------------------------|
D|---------------------------------------------------------------------------|
A|---4---6----------4---6----------4---6----------4---6------------------------------|
E|-----------2--------------2--------------2--------------2----------------------|

Final Chorus
"All I can hope for..."
G|---------------------------------------------------------------------------|
D|---------------------------------------------------------------------------|
A|---4---6----------4---6----------------------------------------------------|
E|-----------2--------------2---4---6---4---2---4---6---4---2---4---6---4---2| end by repeating this 



-------------------------------------------------------------------------------
                             The Weekend - Modern Baseball
-------------------------------------------------------------------------------
Tabbed by: Jack McMurtrie

Tuning: Standard

Verse 1:
[wait]
"Phrase whatever it ended with a smile"
G|--------------------|
D|--------------------|
A|------------4(x32)--|
E|---4(x32)-----------| This is the entire song, just alternate those two notes



-------------------------------------------------------------------------------
                             @Chl03k - Modern Baseball
-------------------------------------------------------------------------------
Tabbed by: Jack McMurtrie

Tuning: Standard

Verse 1:
[wait]
"But now that you saw my tweets"
G|-----------------------------------------------------|
D|-----------------------------------------------------|
A|---6---6-5---5-3---3-1-1-3-5-6---6-5---5-3---3-1-1---|
E|-----------------------------------------------------|

G|-----------------------------|
D|-----------------------------|
A|---6---6-5---5-3---3-1-------|
E|-----------------------3-4---|

G|-----------------------------------------------------|
D|-----------------------------------------------------|
A|---6---6-5---5-3---3-1-1-3-5-6---6-5---5-3---3-1-1---|
E|-----------------------------------------------------|

G|-------------------------------------------------------------|
D|-------------------------------------------------------------|
A|---6---6-5---5-3---3-1---------------------------------------|
E|-----------------------3-4---4---4---4---4-4-4-4-4-4-4-4-4-4-|

Chorus:
[Not actually any bass in this part, but heres the basic chords]
"But I couldn't give a fuck..."
G|---------------------------------------------------------------------------|
D|---------------------------------------------------------------------------|
A|---6---6-6---5---5-5-------------------------------------------------------|
E|-----------------------4---4-4---4---4-4-----------------------------------|



-------------------------------------------------------------------------------
                  Hours Outside in the Snow - Modern Baseball
-------------------------------------------------------------------------------
Tabbed by: Jack McMurtrie

Tuning: Standard

Intro:
[wait]
G|---------------------------------------------------------------------------|
D|---------------------------------------------------------------------------|
A|---------------------------------------------------------------6-8-6-------|
E|---4(x12)---8(x4)---9(x12)---8(x4)---6(x12)---8(x4)---9(x12)---------9-----|

Verse 1:
"I spent all of Christmas eve trying..."
G|---------------------------------------------------------------------------|
D|---------------------------------------------------------------------------|
A|---------------------------------------------------------------------------|
E|---4(x12)---8(x4)---9(x12)---8(x4)---6(x12)---8(x4)---9(x12)---8(x4)-------|x2

G|---------------------------------------------------------------------------|
D|---------------------------------------------------------------------------|
A|---------------------------------------------------------------------------|
E|---4(x6)------------9(x12)---8(x4)---6(x12)---8(x4)---9(x16)---------------|

Chorus:
"You might run"
G|---------------------------------------------------------------------------|
D|---------------------------------------------------------------------------|
A|---------------------------------------------------------------------------|
E|---4(x3)------9(x3)------6(x3)------9(x3)----------------------------------|

Post-Chorus:
G|---------------------------------------------------------------------------|
D|---------------------------------------------------------------------------|
A|---------------------------------------------------------------6-8-6-------|
E|---4(x12)---8(x4)---9(x12)---8(x4)---6(x12)---8(x4)---9(x12)---------9-----|

Verse 1:
"And Though I'd like to stay warm..."
G|---------------------------------------------------------------------------|
D|---------------------------------------------------------------------------|
A|---------------------------------------------------------------------------|
E|---4(x12)---8(x4)---9(x12)---8(x4)---6(x12)---8(x4)---9(x12)---8(x4)-------|

G|---------------------------------------------------------------------------|
D|---------------------------------------------------------------------------|
A|---------------------------------------------------------------------------|
E|---4(x12)---8(x4)---9(x12)---8(x4)---6(x12)---8(x4)---9(x16)---------------|

Chorus:
"You Might Run"
G|---------------------------------------------------------------------------|
D|---------------------------------------------------------------------------|
A|---------------------------------------------------------------------------|
E|---4(x3)------9(x3)------6(x3)------9(x3)----------------------------------|x2

Outro:
"if you wear it"
G|---------------------------------------------------------------------------|
D|---------------------------------------------------------------------------|
A|-----------------------------------------------6-8-6-----------------------|
E|---4---4-4---8-9---9-9---8-6---6-6---8-9---9-9-------9---------------------|

G|---------------------------------------------------------------------------|
D|---------------------------------------------------------------------------|
A|---------------------------------------------------------------------------|
E|---4---4-4---8-9---9-9---8-6---6-6---8-9---9-9---8-------------------------|x3



-------------------------------------------------------------------------------
        I Think you were in my Profile Picture Once - Modern Baseball
-------------------------------------------------------------------------------

No bass :(



-------------------------------------------------------------------------------
                              Re-Done - Modern Baseball
-------------------------------------------------------------------------------
Tabbed by: Jack McMurtrie
Tuning: Drop C# (C# G# C# F#)

Intro:
wait
"But I know how you get..."
G|---------------------|
D|---------------------|
A|---5-555-------------|
E|-------------5-555---| x2

G|---------------------|
D|---------------------|
A|---5(x16)------------|
E|----------5(x16)-----| x2

"But that's when I stopped..."
G|--------------------------------------------|
D|--------------------------------------------|
A|---77799999---555777777---------------------|
E|--------------------------5(x16)------------| x3

G|--------------------------------------------|
D|--------------------------------------------|
A|---777999999---55577777---7(x8)-------------|
E|----------------------------------5---------|

"cause we all know I lack"
G|---------------------------------|
D|---------------------------------|
A|---5-555-55-44-2-222-22----------|
E|------------------------55-555-5-|x4

"But now we're down to brass tacks..."
G|----------------|
D|----------------|
A|----------------|
E|---2-225--5-5---| x4

Guitar Solo
G|---------------------------------|
D|---------------------------------|
A|---5-555-55-44-2-222-22----------|
E|------------------------55-555-5-|x4

"You etch these holes in my brain..."
G|---------------------------------|
D|---------------------------------|
A|---5-555-55-44-2-222-22----------|
E|------------------------55-555-5-|x3

G|---------------------------------|
D|---------------------------------|
A|---5-555-55-44-22----------------|
E|------------------5--------------|

"I know I'm bad with expectations..."
G|----------------------------|
D|----------------------------|
A|---0(x8)---2(x8)------------|
E|-------------------5(x16)---|x4
Then wait

Come in with drums
G|----------------------------|
D|----------------------------|
A|---2(x8)-----------5(x16)---|
E|-----------5(x8)------------| Repeat this until the end



-------------------------------------------------------------------------------
                              Cooke - Modern Baseball
-------------------------------------------------------------------------------
Tabbed by: Jack McMurtrie

Tuning: Standard

Intro:
G|---------------------------------------------------------------------------|
D|---------------------------------------------------------------------------|
A|---6-6---1-1---4---5---6-6---1-1-------------6-6---8-8---10-10-10-2(x5)----|
E|-----------------------------------4-4-4-4---------------------------------|

Verse 1:
"I'm circling the drain"
G|---------------------------------------------------------------------------|
D|---------------------------------------------------------------------------|
A|---6-6---1-1---4---5---6-6---1-1-------------6-6---8-8---10-10-10-10-2(x8)-|
E|-----------------------------------4-4-4-4---------------------------------|x2

Bridge:

G|------------------------------|
D|------------------------------|
A|-----------------2---2-2-2-2--|
E|---2---2-2-2-2----------------|x3

G|-----------------------------------------------------|
D|-----------------------------------------------------|
A|-----------------2---2-2-2-2----------------------5-5|
E|---2---2-2-2-2-----------------4---4-4-4-4---2-2-----|

Verse 2:
"closet weather at best..."
G|---------------------------------------------------------------------------|
D|---------------------------------------------------------------------------|
A|---6-6---1-1---4---5---6-6---1-1-------------6-6---8-8---10-10-10-10-2(x8)-|
E|-----------------------------------4-4-4-4---------------------------------|x2

Bridge:
"maybe its just my luck..."
G|------------------------------|
D|------------------------------|
A|-----------------2---2-2-2-2--|
E|---2---2-2-2-2----------------|x3

G|-----------------------------------------------------|
D|-----------------------------------------------------|
A|-----------------2---2-2-2-2-------------------------|
E|---2---2-2-2-2-----------------4---4-4-4-4---2-2---4-|

G|------------------------------|
D|------------------------------|
A|-----------------2---2-2-2-2--|
E|---2---2-2-2-2----------------|x

G|---------------------------------------------------------------------------|
D|---------------------------------------------------------------------------|
A|-----------------5---5-5-5-5---4---4-4-4-4---2---2-2-2-2---4---4-4-4-4---2-|
E|---2---2-2-2-2-------------------------------------------------------------|



-------------------------------------------------------------------------------
                          See Ya, Sucker - Modern Baseball
-------------------------------------------------------------------------------
Tabbed by: Jack McMurtrie

Tuning: Standard

Intro:
[wait]

Verse 1:
"well here goes nothing..."
G|--------------------------------------------| 
D|--------------------------------------------|
A|------6---6-6-6-6-6-6-----------------------|
E|---666------------------6664---4-4-4-4-4-4--|
                                                    x2
G|--------------------------------------------|
D|--------------------------------------------|
A|------6---6-6-6-6-6-6-----------------------|
E|---666------------------8886---6-6-6-6-6-6--|


Pre-chorus
"But I won't fuckin wait..."
G|---------------------------------------------------------------------------|
D|---------------------------------------------------------------------------|
A|-----------------------------------------------------------10--------------|
E|---3(x16)---4(x16)---11(x32)------3(x16)---4(x16)---11(x16)--11(x7)-10(x12)8|

Chorus:
"On the corner of canal..."
G|---------------------------------------------------------------------------|
D|---------------------------------------------------------------------------|
A|---6(x12)--------------------5(x12)-6(x4)----------------------------------|
E|---------6(x4)-8(x12)-6(x4)---------------4(x12)-6(x4)---------------------|x2

Post Chorus
G|--------------------------------------------| 
D|--------------------------------------------|
A|------6---6-6-6-6-6-6-----------------------|
E|---666------------------6664---4-4-4-4-4-4--|

G|--------------------------------------------| 
D|--------------------------------------------|
A|------6---6-6-6-6-6-6------6--6-6-6-6-6-----|
E|---666------------------666-----------------| 

G|--------------------------------------------| 
D|--------------------------------------------|
A|------6---6-6-6-6-6-6------6--6-6-6-6-6-----|
E|---666------------------666-----------------|

Chorus:
"On the corner of canal..."
G|---------------------------------------------------------------------------|
D|---------------------------------------------------------------------------|
A|---6(x12)--------------------5(x12)-6(x4)----------------------------------|
E|---------6(x4)-8(x12)-6(x4)---------------4(x12)-6(x4)---------------------|x2

G|--------------------------------------------|
D|--------------------------------------------|
A|------6---6-6-6-6-6-6-----------------------|
E|---666------------------6668---8-8-8-8-8-8--|

G|--------------------------------------------|
D|--------------------------------------------|
A|------5---5-5-5-5-5-5-----------------------|
E|---666------------------6664---4-4-4-4-4-4--|



-------------------------------------------------------------------------------
                             Look Out - Modern Baseball
-------------------------------------------------------------------------------
Tabbed by: Jack McMurtrie

Tuning: Standard

Intro:
[wait]
"Heads up because I'm always moving forward..."
G|-----------------------------------|
D|-----------------------------------| 
A|---44----44----44----44-33---------| x2
E|------44----44----44-------44-44---|

Chorus:
"Yeah I said that I'm always moving forward"
G|-------------------------------------------|
D|-------------------------------------------|
A|---4---4-4---------------------------------| x2
E|-------------4---4-4---6---6-6---6---6-6---|



-------------------------------------------------------------------------------
                          Play Ball! - Modern Baseball
-------------------------------------------------------------------------------
Tabbed by: Jack McMurtrie

Tuning: Standard

[wait]
Verse 1:
"This compilation of sayings and tunes..."
G|---------------------------------------------------------------------------|
D|-----------------------------------------------14--------------------------|
A|---------------------------------------------24----------------------------|
E|---2--2--2222--2--2--2222--2--2--2222--2--2--------------------------------|

G|---------------------------------------------------------------------------|
D|---------------------------------------------------------------------------|
A|---6--6--6666--6--6--6666--2-----------------------------------------------|
E|---------------------------------------------------------------------------|

G|---------------------------------------------------------------------------|
D|---------------------------------------------------------------------------|
A|--------------------------------------------4--1---------------------------|
E|---2--2--2222--2--2-2222--2--2--2222--4--4---------------------------------|

G|---------------------------------------------------------------------------|
D|---------------------------------------------------------------------------|
A|---6--6--6666--6--6--6666--2--2--2222--2--2--2222--------------------------|
E|---------------------------------------------------------------------------|

Chorus:
[wait]
Bass comes in with this:
G|-------------|
D|---4-4-4-1---|
A|-------------|
E|-------------|

"I------ Shouldn't have to sing..."
G|----------------------------3-1--------------------------------------------|
D|--------------------------------4------------------------------------------|
A|---44--44--44--44--66--66--6------11--11--11--11--2------------------------|
E|---------------------------------------------------------------------------|

G|---------------------------------------------------------------------------|
D|---------------------------------------------------------------------------|
A|-------------------------------1-1--2--2--222-2--222-2--222-2--22----------|
E|---2--2--222-2--222-2--222-2-2---------------------------------------------|

G|---------------------------------------------------------------------------|
D|-----------------------------------------------------4---------------------|
A|-------------------------------1-1--2--2--222-2--222---222-2--22-----------|
E|---2--2--222-2--222-2--222-2-2---------------------------------------------|

G|---------------------------------------------------------------------------|
D|---------------------------------------------------------------------------|
A|-------------------------------1-1--2--2--222-2--222-2--222-2--22----------|
E|---2--2--222-2--222-2--222-2-2---------------------------------------------|

G|---------------------------------------------------------------------------|
D|---------------------------------------------------------------------------|
A|-------------------------------1-1--2--2--222-2---2---2---2----------------|
E|---2--2--222-2--222-2--222-2-2---------------------------------------------|



-------------------------------------------------------------------------------
                           Coals - Modern Baseball
-------------------------------------------------------------------------------
Tabbed by: Jack McMurtrie

Tuning: Standard

No bass :(



===============================================================================
Suggest correction
comments
print report bad tab
guest
You may want to rate the tab now too:
select rating
Wanna post a correction for this tab? Suggest correction