Oops, an error
Loading. Please wait.

Tears Over Beers bass

1,684 views 18 this week
no commentswrite comment
1 2 3 4 5
x 4
add to favorites
×
Save as Personal and add changes to this tab that will be seen only by you. Learn more ›
×
You can save this tab as Personal to edit and correct it or add notes. All changes will be seen only by you. Learn more »
launch autoscroll
font size
0
reset
guitar tuner
edit
Autoscroll
slow
fast
+/-
esc
set tempo
stop
Author
Difficulty
TEARS OVER BEERS -- MODERN BASEBALL

This tab is as is played in the song, no funny transpositions. I'm sure this is right, but please feel free to 
submit corrections.
This is my first tab, so please be gentle!



BEGIN
Rest until "...three more years"

BPM: 120, This part is quite fast

   THREE     MORE      YEARS
G|---------------------|-------------------------------------------------|
D|---------------------|-------------------------------------------------|
A|-6---------5---------|-4-----4--4--4-----4--4--4-----------------------|
E|---------------------|-------------------------------------------------|
  
G|-------------------------------------------------|
D|-------------------------------------------------|
A|-4-----4--4-----4--4--4--4-----4--4-----4--4--4--|
E|-------------------------------------------------|


G|-------------------------------------------------|-------------------------------------------------|
D|-------------------------------------------------|-------------------------------------------------|
A|-6-----6--6-----6--6--6--6-----6--6-----6--6--6--|-5-----5--5-----5--5--5--5-----5--5-----5--5--5--|
E|-------------------------------------------------|-------------------------------------------------|

                                                    REST 8 BARS
                                                [x2]"When I moved away from home.."
G|-------------------------------------------------|--------|--------|--------|--------|
D|-------------------------------------------------|--------|--------|--------|--------|
A|-4-----4--4-----4--4--4--4-----4--4-----4--4--4--|--------|--------|--------|--------|
E|-------------------------------------------------|--------|--------|--------|--------|

                                        
                                             BPM: 131
                                            "That girl who's next me..."
G|--------|--------|--------|---------------------|---------------------|---------------------|
D|--------|--------|--------|---------------------|---------------------|---------------------|
A|--------|--------|--------|----------------4----/-11-------------9----|-6--------------4----| (slide 4 to 11)
E|--------|--------|--------|---------------------|---------------------|---------------------|


G|---------------------|---------------------|---------------------|---------------------|
D|---------------------|---------------------|---------------------|---------------------|
A|-5--------------6----|-4--------------4----|-11-------------9----|-6--------------4----|
E|---------------------|---------------------|---------------------|---------------------|


G|------------------------------|-----------------------------------|
D|------------------------------|-----------------------------------|
A|-5------------5---5-----------|-5---4-----------4---4-------------|
E|------------------------------|-----------------------------------|

CHORUS 
BPM: 60
G|---------------------|---------------------|---------------------|---------------------|
D|---------------------|---------------------|---------------------|---------------------|
A|-4----6--------------|-4----6--------------|---------------------|-4----6--------------|
E|-----------2----2----|-----------2----4----|-6----4----2----4----|-----------2---------|

He needed more than me... [x4]
G|---------------------|
D|---------------------|
A|-4----6--------------|
E|-----------2---------|

REST 4 BARS

That girl who's next to me... [x5]
G|---------------------|
D|---------------------|
A|-4----6--------------|
E|-----------2---------|


CHORUS 2

G|---------------------|---------------------|---------------------|---------------------|
D|---------------------|---------------------|---------------------|---------------------|
A|-4----6--------------|-4----6--------------|---------------------|---------------------|
E|-----------2----2----|-----------2----4----|-6----4----2----4----|-6----4----2----4----|

G|---------------------|---------------------|
D|---------------------|---------------------|
A|---------------------|---------------------|
E|-6----4----2----4----|-6----4----2====-----| (let 2 ring)

END

            
            
Suggest correction
Creating personal tab
Creating personal tab
You can edit any tab online and save it as your Personal.

You can edit, replace or remove any tab part or add personal notes – all changes will be seen only by you.

Personal tabs can be accessed anytime from any device, even offline.
Learn more »
comments
print report bad tab
guest
You may want to rate the tab now too:
select rating
Wanna post a correction for this tab? Suggest correction