Oops, an error
Loading. Please wait.

Wedding Singer Tab

version 1
version 1

Intro

Whole song

Interactive

46 views 15 this week
no commentswrite comment
1 2 3 4 5
3 more votes to show rating
add to favorites
launch autoscroll
font size
0
reset
how to read this tab
guitar tuner
Autoscroll
slow
fast
+/-
esc
set tempo
stop
Help us to improve Ultimate-Guitar.com Take our survey!
×
Author
Difficulty
novice
This is how Brendan plays the intro acoustically. https://www.youtube.com/watch?v=3ESdOSb2UYQ


[Intro]

E|-8-7-5--------------------------------------------------------------------------------------------|
B|--------8-5---------------------------------------------------------------------------------------|
G|-----------------5/10--9-7-5----------------------------------------------------------------------|
D|--------------------------------------------------------------------------------------------------| 
A|--------------------------------------------------------------------------------------------------|
E|--------------------------------------------------------------------------------------------------|(x3)

E|-8-7-5--------------------------------------------------------------------------------------------|
B|--------8-5---------------------------------------------------------------------------------------|
G|-----------------5/10--9-7b-----------------------------------------------------------------------|
D|--------------------------------------------------------------------------------------------------|
A|--------------------------------------------------------------------------------------------------|
E|--------------------------------------------------------------------------------------------------|


************************************

| /  Slide up
| b  Bend

************************************
Suggest correction
Give kudos to tab author, rate the tab!
1 2 3 4 5
comments
print report bad tab
guest
You may want to rate the tab now too:
select rating
Wanna post a correction for this tab? Suggest correction