Oops, an error
Loading. Please wait.
We have Chord Pro version of Wedding Singer.
It's the closest thing you can get to the original song and it has interactive parts. Check out the tab »
×

Wedding Singer tab

version 1
version 1

Whole song

  • This is the lead guitar of the acoustic version th... Show more

Interactive

16,786 views 132 this week
7 commentsread comments
1 2 3 4 5
x 21
add to favorites
×
Save as Personal and add changes to this tab that will be seen only by you. Learn more ›
×
You can save this tab as Personal to edit and correct it or add notes. All changes will be seen only by you. Learn more »
launch autoscroll
font size
0
reset
how to read this tab
guitar tuner
edit
Autoscroll
slow
fast
+/-
esc
set tempo
stop
Author
Difficulty
Track: Wedding Singer
Artist: Modern Baseball
Album: Holy Ghost (2016)
Tuning: E Standard (E A D G B e)


Tabbed by: Noah Maranesi
Website: https://instagram.com/n04hz_ark

Video Playalong: https://youtu.be/2tPp9af9KPs
Chord variation: https://tabs.ultimate-guitar.com/m/modern_baseball/wedding_singer_ver2_crd.htm

In the video provided, Dm is played instead of D7. This has been corrected below.


Intro (0:00)

e|--8--7--5-------------------------|--8--7--5-------------------------|
B|-----------8--5-------6--5--------|-----------8----------6--5--------|
G|-------------------5--------7--5--|--------------7----5--------7--5--|
D|----------------------------------|----------------------------------|
A|----------------------------------|----------------------------------|
E|----------------------------------|----------------------------------|

e|--8--7--5-------------------------|--8--7--5-------------------------|
B|-----------8--5-------6--5--------|-----------8----------6--5--------|
G|-------------------5--------7--5--|--------------7----5--------7-----|
D|----------------------------------|----------------------------------|
A|----------------------------------|----------------------------------|
E|----------------------------------|----------------------------------|


Verse 1 (0:20) (exact strumming not shown)

    "Find it hard to believe tonight..."

e|---------|---------|-----------------|
B|:-------:|---------|-----------------|
G|-5-5-5-5-|-5-------|-----------------|
D|-5-5-5-5-|-5-5-5-5-|-7-7-7-7-3-3-3-3-|
A|:3-3-3-3:|-3-5-5-5-|-7-7-7-7-3-3-3-3-|
E|---------|---3-3-3-|-5-5-5-5-1-1-1-1-|

e|---------|---------|---------------------------------|
B|:-------:|---------|---------------------------------|
G|-5-5-5-5-|-5-5-4-4-|-2-2-2-2-------------------------|
D|-5-5-5-5-|-5-5-5-5-|-2-2-2-2-5-5-5-5-4-4-4-4-4-4-4-4-|
A|:3-3-3-3:|-3-3-2-2-|-0-0-0-0-5-5-5-5-5-5-5-5-5-5-5-5-|
E|---------|---------|---------3-3-3-3-2-2-2-2-2-2-2-2-|

e|--1~-----|--3~-----|--1~-----|--3~-----|
B|--1~-----|--3~-----|--1~-----|--3~-----|
G|--2~-----|--4~-----|--2~-----|--4~-----|
D|--3~-----|--5~-----|--3~-----|--5~-----|
A|--3~-----|--5~-----|--3~-----|--5~-----|
E|--1~-----|--3~-----|--1~-----|--3~-----|

e|-----------------|-1-1-1-1-1-1-1-1-|-----------------|-----------------|
B|-----------------|-3-3-3-3-3-3-3-3-|-----------------|-----------------|
G|-----------------|-2-2-2-2-2-2-2-2-|-----------------|-----------------|
D|-3-3-3-3-3-3-3-3-|-0-0-0-0-0-0-0-0-|-3-3-3-3-3-3-3-3-|-5-5-5-5-5-5-5-5-|
A|-3-3-3-3-3-3-3-3-|-----------------|-3-3-3-3-3-3-3-3-|-5-5-5-5-5-5-5-5-|
E|-1-1-1-1-1-1-1-1-|-----------------|-1-1-1-1-1-1-1-1-|-3-3-3-3-3-3-3-3-|


Bridge (1:00)

e|--8--7--5-------------------------|--8--7--5-------------------------|
B|-----------8--5-------6--5--------|-----------8----------6--5--------|
G|-------------------5--------7--5--|--------------7----5--------7-----|
D|----------------------------------|----------------------------------|
A|----------------------------------|----------------------------------|
E|----------------------------------|----------------------------------|


Verse 2 (1:11) (exact strumming not shown))

    "Said goodbye from the front porch..."

e|---------|---------|-----------------|
B|:-------:|---------|-----------------|
G|-5-5-5-5-|-5-5-4-4-|-2-2-2-2---------|
D|-5-5-5-5-|-5-5-5-5-|-2-2-2-2-5-5-5-5-|
A|:3-3-3-3:|-3-3-2-2-|-0-0-0-0-5-5-5-5-|
E|---------|---------|---------3-3-3-3-|

e|---------|---------|-------|-------|-------|
B|:-------:|---------|-1~----|-5~----|-3~----|
G|-5-5-5-5-|-5-5-4-4-|-2~----|-5~----|-2~----|
D|-5-5-5-5-|-5-5-5-5-|-2~----|-5~----|-0~----|
A|:3-3-3-3:|-3-3-2-2-|-0~----|-3~----|-0~----|
E|---------|---------|-------|-------|-2~----|

e|-------|-------|-------|---------|
B|-1~----|-5~----|-3~----|-3~3~3~3~|
G|-2~----|-5~----|-2~----|-2~2~2~2~|
D|-2~----|-5~----|-0~----|-0~0~0~0~|
A|-0~----|-3~----|-0~----|-0~0~0~0~|
E|-------|-------|-2~----|-2~2~2~2~|


Break (1:34) (exact strumming not shown)

    "Conviction blacked out friction flies me"

e|---------|---------|-------------3-3-|-1-1-1-1-1-1-1-1-|-3-3-3-3-3-3-3-3-|
B|-1-1-1-1-|-1-1-1-1-|-1-1-1-1-1-1-3-3-|-1-1-1-1-1-1-1-1-|-3-3-3-3-3-3-3-3-|
G|-2-2-2-2-|-0-0-0-0-|-0-0-0-0-2-2-0-0-|-2-2-2-2-2-2-2-2-|-0-0-0-0-0-0-0-0-|
D|-2-2-2-2-|-0-0-0-0-|-2-2-0-0-2-2-0-0-|-3-3-3-3-3-3-3-3-|-0-0-0-0-0-0-0-0-|
A|-0-0-0-0-|-2-2-2-2-|-3-3-2-2-0-0-2-2-|-3-3-3-3-3-3-3-3-|-2-2-2-2-2-2-2-2-|
E|---------|---------|-------------3-3-|-1-1-1-1-1-1-1-1-|-3-3-3-3-3-3-3-3-|

e|-----------------|-3-3-3-3-3-3-3-|-----------------|---------|-------------3-3-|
B|-----------------|-3-3-3-3-3-3-3-|-1-1-1-1-1-1-1-1-|-1-1-1-1-|-1-1-1-1-1-1-3-3-|
G|-----------------|-0-0-0-0-0-0-0-|-2-2-2-2-2-2-2-2-|-0-0-0-0-|-0-0-0-0-2-2-0-0-|
D|-3-3-3-3-3-3-3---|-0-0-0-0-0-0-0-|-2-2-2-2-2-2-2-2-|-0-0-0-0-|-2-2-0-0-2-2-0-0-|
A|-3-3-3-3-3-3-3---|-2-2-2-2-2-2-2-|-0-0-0-0-0-0-0-0-|-2-2-2-2-|-3-3-2-2-0-0-2-2-|
E|-1-1-1-1-1-1-1---|-3-3-3-3-3-3-3-|-----------------|---------|-------------3-3-|

e|-1-1-1-1-1-1-1-1-|-2-2-2-2-2-2-2-2-|-1-1-1-1-1-1-1-1-|-3-3-3-3-3-3-3-|
B|-1-1-1-1-1-1-1-1-|-1-1-1-1-1-1-1-1-|-1-1-1-1-1-1-1-1-|-3-3-3-3-3-3-3-|
G|-2-2-2-2-2-2-2-2-|-2-2-2-2-2-2-2-2-|-2-2-2-2-2-2-2-2-|-0-0-0-0-0-0-0-|
D|-3-3-3-3-3-3-3-3-|-0-0-0-0-0-0-0-0-|-3-3-3-3-3-3-3-3-|-0-0-0-0-0-0-0-|
A|-3-3-3-3-3-3-3-3-|-----------------|-3-3-3-3-3-3-3-3-|-2-2-2-2-2-2-2-|
E|-1-1-1-1-1-1-1-1-|-----------------|-1-1-1-1-1-1-1-1-|-3-3-3-3-3-3-3-|


Outro (2:06)
                                                                     x2
e|--8--7--5-------------------------|--8--7--5-------------------------|
B|:----------8--5-------6--5--------|-----------8----------6--5-------:|
G|-------------------5--------7--5--|--------------7----5--------7--5--|
D|----------------------------------|----------------------------------|
A|:---------------------------------|---------------------------------:|
E|----------------------------------|----------------------------------|

e|--8--7--5-------------------------|--8--7--5-------------------------|
B|-----------8--5-------6--5--------|-----------8----------6--5--------|
G|-------------------5--------7--5--|--------------7----5--------7-----|
D|----------------------------------|----------------------------------|
A|----------------------------------|----------------------------------|
E|----------------------------------|----------------------------------|

            
            
Suggest correction
Creating personal tab
Creating personal tab
You can edit any tab online and save it as your Personal.

You can edit, replace or remove any tab part or add personal notes – all changes will be seen only by you.

Personal tabs can be accessed anytime from any device, even offline.
Learn more »
comments
print report bad tab
7 comments total. Showing first comments.
+3 reply
A Punk Penguin 10 May 16, 2016 06:41 AM, edited at 10:42 am

Small correction on the intro. Starting at the 6th note (5th fret on the D) is played differently on the video of them playing it acoustically https://www.youtube.com/watch?v=3ESdOSb2UYQ. It looks like Brenden slides to the 10th fret on the D string then plays 10 9 7 5 on the G.

0 reply
bcc14 10 Sep 22, 2016 11:43 AM

Do you know what the strumming pattern is? Awesome tab by the way!!

0 reply
ljmammut 10 Jan 11, 2017 08:25 AM

Does anyone know where to find the other parts, e.g. what the rhythm parts underneath the leads are supposed to be?

guest
You may want to rate the tab now too:
select rating
Wanna post a correction for this tab? Suggest correction