Oops, an error
Loading. Please wait.

Lets Get Sweaty tab

152 views 1 this week
no commentswrite comment
1 2 3 4 5
3 more votes to show rating
add to favorites
×
Save as Personal and add changes to this tab that will be seen only by you. Learn more ›
×
You can save this tab as Personal to edit and correct it or add notes. All changes will be seen only by you. Learn more »
launch autoscroll
font size
0
reset
how to read this tab
guitar tuner
edit
Autoscroll
slow
fast
+/-
esc
set tempo
stop
Let's Get Sweaty Rhythm Guitar
Tuning Drop C#
Comment: A number above a bar line means repeat.
(ie 1 means "repeat once")
    |
    |
    |
   etc

Intro, Chorus 1 & 2

Eb :| --------------------------------|----------------|
Bb :| --------------------------------|----------------|
Gb :|*--------------------------------|----------------|
Db :|*--------------------------------|----0*--0-0-0-0-|
Ab :| --------------------------------|----0*--0-0-0-0-|
Db :| 10-h12-p0-h10-h12-p0-h10-h12----|----0*--0-0-0-0-|
                                          P.M----------|

Eb :----------------------------|------------------|
Bb :----------------------------|------------------|
Gb :----------------------------|------------------|
Db :-*-------------------12-----|--\10-----0-0-0-0-|
Ab :-*--------------------8-----|----8-----0-0-0-0-|
Db :10-h12-p0-h10-h12-p0--8-----|----8-----0-0-0-0-|
                                          P.M------|

Eb :--------------------------------|----------------|-------------------|
Bb :--------------------------------|----------------|-------------------|
Gb :--------------------------------|----------------|-------------------|
Db :-*------------------------------|----0*--0-0-0-0-|-*-----------------|
Ab :-*------------------------------|----0*--0-0-0-0-|-*-----------------|
Db :10-h12-p0-h10-h12-p0-h10-h12----|----0*--0-0-0-0-|12-10-0-0-10-8-0-0-|
                                        P.M------------------------------|

Eb :---------------- 1|-------------------|-----------------|
Bb :---------------- ||-------------------|-----------------|
Gb :----------------*||-------------------|-----------------|
Db :----------------*||-------------------|-----------------|
Ab :---------------- ||-------------------|-----------------|
Db :8-7-0-0-7-5-0-0- ||12-10-0-0-10-8-0-0-|8-7-0-0-b5-------|
   P.M---------------| P.M-----------------------| 



Verse 1

Eb :----------------|----------------|----------------|----------------|
Bb :----------------|----------------|----------------|----------------|
Gb :----------------|----------------|----------------|----------------|
Db :----------------|3---0-0-0-0-0---|----0-0-0-0*----|--------0-0*----|
Ab :----------------|3---0-0-0-0-0---|----0-0-0-0*----|--------0-0*----|
Db :----------------|3---0-0-0-0-0---|----0-0-0-0*----|--------0-0*----|
                        P.M-----|        P.M-----|            P.M-|

Eb :----------------|-----------------|----------------|----------------|
Bb :----------------|-----------------|----------------|----------------|
Gb :----------------|-----------------|----------------|----------------|
Db :5-5-5-5-7-7-7-7-|10---0-0-0-0-0---|----0-0-0-0*----|----------------|
Ab :5-5-5-5-7-7-7-7-|-8---0-0-0-0-0---|----0-0-0-0*----|----------------|
Db :5-5-5-5-7-7-7-7-|-8---0-0-0-0-0---|----0-0-0-0*----|3-3-3-3-5-5-5-5-|
   P.M--------------|    P.M-----|        P.M-----|    P.M--------------|

Eb :----------------|----------------|----------------|----------------|
Bb :----------------|----------------|----------------|----------------|
Gb :----------------|----------------|----------------|----------------|
Db :----------------|3---0-0-0-0-0---|----0-0-0-0*----|--------0-0*----|
Ab :----------------|3---0-0-0-0-0---|----0-0-0-0*----|--------0-0*----|
Db :8-8-8-8-7-7-7-7-|3---0-0-0-0-0---|----0-0-0-0*----|--------0-0*----|
   P.M--------------|   P.M-----|        P.M-----|            P.M-|

Eb :----------------|----------------------|--------------------|
Bb :----------------|----------------------|--------------------|
Gb :----------------|----------------------|--------------------|
Db :5-5-5-5-7-7-7-7-|10---10-10-10-10-10---|----10-10-10-10*----|
Ab :5-5-5-5-7-7-7-7-|-8----8--8--8--8--8---|-----8--8--8--8*----|
Db :5-5-5-5-7-7-7-7-|-8----8--8--8--8--8---|-----8--8--8--8*----|
   P.M--------------|     P.M--------|          P.M--------|



Break

Eb :----------------|-----------------|--------------------------------|
Bb :----------------|-----------------|--------------------------------|
Gb :----------------|-----------------|--------------------------------|
Db :----------------|-----------------|--------------------------------|
Ab :----------------|-----------------|--------------------------------|
Db :3-5-0-0-5-7-0-0-|7-8-0-0-8-10-0-0-|10-h12-p0-h10-h12-p0-h10-h12----|
   P.M--------------------------------|

Eb :----------------|----------------------------|------------------|
Bb :----------------|----------------------------|------------------|
Gb :----------------|----------------------------|------------------|
Db :----0*--0-0-0-0-|-*-------------------12-----|--\10-----0-0-0-0-|
Ab :----0*--0-0-0-0-|-*--------------------8-----|----8-----0-0-0-0-|
Db :----0*--0-0-0-0-|10-h12-p0-h10-h12-p0--8-----|----8-----0-0-0-0-|
       P.M----------|                                      P.M------|


Eb :--------------------------------|----------------|--------------------|
Bb :--------------------------------|----------------|--------------------|
Gb :--------------------------------|----------------|--------------------|
Db :-*------------------------------|----0*--0-0-0-0-|--*-----------------|
Ab :-*------------------------------|----0*--0-0-0-0-|--*-----------------|
Db :10-h12-p0-h10-h12-p0-h10-h12----|----0*--0-0-0-0-|/12-------\10-------|
                                        P.M----------|

Eb :-----------------|| -------------------|---------------------- 1|
Bb :-----------------|| -------------------|---------------------- ||
Gb :-----------------||*-------------------|----------------------*||
Db :-----------------||*10---*-10---*-10---|----10-10-10-10-10-10-*||
Ab :-----------------|| -8---*--8---*--8---|-----8--8--8--8--8--8- ||
Db :8-------10-------|| -8---*--8---*--8---|-----8--8--8--8--8--8- ||
                                                P.M--------------- |

Eb :----------------|----------------|----------------|----------------|
Bb :----------------|----------------|----------------|----------------|
Gb :----------------|----------------|----------------|----------------|
Db :3---*-3---*-0---|----0-0-0-0*----|----0-0-0-0*----|----0-0-0-0-0-0-|
Ab :3---*-3---*-0---|----0-0-0-0*----|----0-0-0-0*----|----0-0-0-0-0-0-|
Db :3---*-3---*-0---|----0-0-0-0*----|----0-0-0-0*----|----0-0-0-0-0-0-|
                        P.M-----|        P.M------|      P.M-----------|



Verse 2

Eb :----------------|----------------|----------------|----------------|
Bb :----------------|----------------|----------------|----------------|
Gb :----------------|----------------|----------------|----------------|
Db :3---0-0-0-0-0---|----0-0-0-0*----|----0-0-0-0*----|----0-0-0-0-0-0-|
Ab :3---0-0-0-0-0---|----0-0-0-0*----|----0-0-0-0*----|----0-0-0-0-0-0-|
Db :3---0-0-0-0-0---|----0-0-0-0*----|----0-0-0-0*----|----0-0-0-0-0-0-|
       P.M-----|        P.M-----|        P.M-----|        P.M----------|
    

Eb :----------------|----------------|----------------------|
Bb :----------------|----------------|----------------------|
Gb :----------------|----------------|----------------------|
Db :5---5-5-5-5-5---|----5-5-5-5-5-5-|10---10-10-10-10-10---|
Ab :5---5-5-5-5-5---|----5-5-5-5-5-5-|-8----8--8--8--8--8---|
Db :5---5-5-5-5-5---|----5-5-5-5-5-5-|-8----8--8--8--8--8---|
       P.M-----|        P.M----------|     P.M---------|

Eb :----------------------|------------------------|
Bb :----------------------|------------------------|
Gb :----------------------|------------------------|
Db :----10-10-10-10-10-10-|-*----------------------|
Ab :-----8--8--8--8--8--8-|10-10-10-10-10-10-10-10-|
Db :-----8--8--8--8--8--8-|-*----------------------|
        P.M---------------|P.M---------------------|

Eb :------------------------|------------------------|
Bb :------------------------|------------------------|
Gb :------------------------|------------------------|
Db :------------------------|------------------------|
Ab :10-10-10-10-10-10-10-10-|12-12-12-12-12-12-12-12-|
Db :------------------------|------------------------|
    P.M----------------------------------------------|

Eb :------------------------|----------------|----------------|
Bb :------------------------|----------------|----------------|
Gb :------------------------|----------------|----------------|
Db :------------------------|5---5-5*--5-5---|----5-5-5-5*----|
Ab :12-12-12-12-12-12-12-12-|5---5-5*--5-5---|----5-5-5-5*----|
Db :------------------------|5---5-5*--5-5---|----5-5-5-5*----|
   P.M----------------------|   P.M-----|        P.M-----|

Eb :----------------|----------------|---------------------|
Bb :----------------|----------------|---------------------|
Gb :----------------|----------------|---------------------|
Db :----5-5-5-5*----|----5-5-5-5-5-5-|10---10-10*--10-10---|
Ab :----5-5-5-5*----|----5-5-5-5-5-5-|-8----8--8*---8--8---|
Db :----5-5-5-5*----|----5-5-5-5-5-5-|-8----8--8*---8--8---|
       P.M---------------------------|     P.M-------|

Eb :--------------------|--------------------|----------------------|
Bb :--------------------|--------------------|----------------------|
Gb :--------------------|--------------------|----------------------|
Db :----10-10-10-10*----|----10-10-10-10*----|----10-10-10-10-10-10-|
Ab :-----8--8--8--8*----|-----8--8--8--8*----|-----8--8--8--8--8--8-|
Db :-----8--8--8--8*----|-----8--8--8--8*----|-----8--8--8--8--8--8-|
       P.M----------------------------------------------------------|

Eb :| ----------------|----------------|----------------|---------------- 1|
Bb :| ----------------|----------------|----------------|---------------- ||
Gb :|*----------------|----------------|----------------|----------------*||
Db :|*0*--0-0-3---0---|*---------------|----------------|----------------*||
Ab :| 0*--0-0-3---0---|*---------------|----------------|---------------- ||
Db :| 0*--0-0-3---0---|*---------------|----------------|---------------- ||
     P.M-----|

Eb :-----------------------|------------------------|
Bb :-----------------------|------------------------|
Gb :14---14-14-14-14-14-14-|14-14-14-14-14-14-14-14-|
Db :-x----x--x--x--x--x--x-|-x--x--x--x--x--x--x--x-|
Ab :12---12-12-12-12-12-12-|12-12-12-12-12-12-12-12-|
Db :-----------------------|------------------------|

Eb :------------------------|------------------------|
Bb :------------------------|------------------------|
Gb :12-12-12-12-12-12-12-12-|12-12-12-12-12-12-12-12-|
Db :-x--x--x--x--x--x--x--x-|-x--x--x--x--x--x--x--x-|
Ab :10-10-10-10-10-10-10-10-|10-10-10-10-10-10-10-10-|
Db :------------------------|------------------------|

Eb :------------------------|------------------------|-----------------|
Bb :------------------------|------------------------|-----------------|
Gb :14-14-14-14-14-14-14-14-|14-14-14-14-14-14-14-14-|*----------------|
Db :-x--x--x--x--x--x--x--x-|-x--x--x--x--x--x--x--x-|-----------------|
Ab :12-12-12-12-12-12-12-12-|12-12-12-12-12-12-12-12-|*----------------|
Db :------------------------|------------------------|7-8-0-0-8-10-0-0-|
                                                      P.M--------------|

Eb :--------------------|
Bb :--------------------|
Gb :--------------------|
Db :--------------------|
Ab :--------------------|
Db :10-12-0-0-12-14-0-0-|
   P.M------------------|



Verse 3

Eb :| ----------------|----------------|
Bb :| ----------------|----------------|
Gb :|*----------------|----------------|
Db :|*0-*-0-0*--0-0---|----------------|
Ab :| 0-*-0-0*--0-0---|----------------|
Db :| 0-*-0-0*--0-0---|----------------|
         PM------|
Eb :----------------|----------------|----------------|----------------|
Bb :----------------|----------------|----------------|----------------|
Gb :----------------|----------------|----------------|----------------|
Db :----------------|----------------|5---------------|----------------|
Ab :----------------|----------------|5---------------|----------------|
Db :----------------|----------------|5---------------|----------------|

Eb :-------------------|---------------- 1|----------------|
Bb :-------------------|---------------- ||----------------|
Gb :-------------------|----------------*||----------------|
Db :10---*-10---*-10---|----------------*||0---0-0*--0-0*--|
Ab :-8---*--8---*--8---|---------------- ||0---0-0*--0-0*--|
Db :-8---*--8---*--8---|---------------- ||0---0-0*--0-0*--|
                                          PM---------------|

Eb :----------------|----------------|----------------|----------------|
Bb :----------------|----------------|----------------|----------------|
Gb :----------------|----------------|----------------|----------------|
Db :----------------|0---0-0*--0-0*--|----0*--0-0-0-0-|5---5-5*--5-5*--|
Ab :----------------|0---0-0*--0-0*--|----0*--0-0-0-0-|5---5-5*--5-5*--|
Db :----------------|0---0-0*--0-0*--|----0*--0-0-0-0-|5---5-5*--5-5*--|
    P.M----------------------------------------------------------------|

Eb :----------------|---------------------|----------------|
Bb :----------------|---------------------|----------------|
Gb :----------------|---------------------|----------------|
Db :----------------|10---10-10*--10-10---|----------------|
Ab :----------------|-8----8--8*---8--8---|----------------|
Db :----------------|-8----8--8*---8--8---|----------------|
    P.M------------------------------|

Eb :----------------|----------------|----------------|----------------|
Bb :----------------|----------------|----------------|----------------|
Gb :----------------|----------------|----------------|----------------|
Db :0---0-0*--0-0---|----------------|0---0-0*--0-0---|----------------|
Ab :0---0-0*--0-0---|----------------|0---0-0*--0-0---|----------------|
Db :0---0-0*--0-0---|----------------|0---0-0*--0-0---|----------------|
    P.M----------------------------------------------------------------|

Eb :----------------|----------------|-------------------|----------------|
Bb :----------------|----------------|-------------------|----------------|
Gb :----------------|----------------|-------------------|----------------|
Db :5---5-5*--5-5---|----------------|10---*-10---*-10---|----------------|
Ab :5---5-5*--5-5---|----------------|-8---*--8---*--8---|----------------|
Db :5---5-5*--5-5---|----------------|-8---*--8---*--8---|----------------|
    P.M------------------------------|

Eb :| ----------------|---------------- 1|----------------|----------------|
Bb :| ----------------|---------------- ||----------------|----------------|
Gb :|*----------------|----------------*||----------------|----------------|
Db :|*0-----0-----0---|0---*-----------*||5-----5-----5---|5---*-----------|
Ab :| 0-----0-----0---|0---*----------- ||5-----5-----5---|5---*-----------|
Db :| 0-----0-----0---|0---*----------- ||5-----5-----5---|5---*-----------|

Eb :-------------------|-----------------|| ----------------|
Bb :-------------------|-----------------|| ----------------|
Gb :-------------------|-----------------||*----------------|
Db :10-----10-----10---|10---x-x-x-x-x-x-||*0-----0-----0---|
Ab :-8------8------8---|-8---x-x-x-x-x-x-|| 0-----0-----0---|
Db :-8------8------8---|-8---x-x-x-x-x-x-|| 0-----0-----0---|

Eb :---------------- 1|----------------|----------------|
Bb :---------------- ||----------------|----------------|
Gb :----------------*||----------------|----------------|
Db :0---x-x-x-x-x-x-*||5-----5-----5---|5---x-x-x-x-x-x-|
Ab :0---x-x-x-x-x-x- ||5-----5-----5---|5---x-x-x-x-x-x-|
Db :0---x-x-x-x-x-x- ||5-----5-----5---|5---x-x-x-x-x-x-|

Eb :-------------------|-----------------|-----------------|
Bb :-------------------|-----------------|-----------------|
Gb :-------------------|-----------------|-----------------|
Db :10-----10-----10---|10---x-x-x-x-x-x-|10---------------|
Ab :-8------8------8---|-8---x-x-x-x-x-x-|-8---------------|
Db :-8------8------8---|-8---x-x-x-x-x-x-|-8---------------|

Eb :----------------|----------------|----------------|----------------|
Bb :----------------|----------------|----------------|----------------|
Gb :----------------|----------------|----------------|----------------|
Db :----------------|----------------|----------------|3---------------|
Ab :----------------|----------------|----------------|3---------------|
Db :----------------|----------------|----------------|3---------------|

Eb :----------------|----------------|
Bb :----------------|----------------|
Gb :----------------|----------------|
Db :----------------|5---*-----------|
Ab :----------------|5---*-----------|
Db :----------------|5---*-----------|



Bridge

----------------|----------------|
----------------|----------------|
----------------|----------------|
5---5---5---5---|5---5---5---5---|
5---5---5---5---|5---5---5---5---|
5---5---5---5---|5---5---5---5---|

Eb :----------------|----------------|----------------|----------------|
Bb :----------------|----------------|----------------|----------------|
Gb :----------------|----------------|----------------|----------------|
Db :5---5---5---5---|3---3---3---3---|8---8---8---8---|8---8---8---8---|
Ab :5---5---5---5---|3---3---3---3---|8---8---8---8---|8---8---8---8---|
Db :5---5---5---5---|3---3---3---3---|8---8---8---8---|8---8---8---8---|

Eb :----------------|----------------|----------------|----------------|
Bb :----------------|----------------|----------------|----------------|
Gb :----------------|----------------|----------------|----------------|
Db :8---8---8---8---|7---7---7---7---|3---3-3-3-3-3---|----3---3---3---|
Ab :8---8---8---8---|8---8---8---8---|3---3-3-3-3-3---|----3---3---3---|
Db :8---8---8---8---|7---7---7---7---|3---3-3-3-3-3---|----3---3---3---|

Eb :----------------|----------------|----------------|----------------|
Bb :----------------|----------------|----------------|----------------|
Gb :----------------|----------------|----------------|----------------|
Db :3---3-3-3-3-3---|----3---5---5---|0---0-0-0-0-0---|----0---0---0---|
Ab :3---3-3-3-3-3---|----3---5---5---|0---0-0-0-0-0---|----0---0---0---|
Db :3---3-3-3-3-3---|----3---5---5---|0---0-0-0-0-0---|----0---0---0---|

Eb :----------------|----------------|----------------|----------------|
Bb :----------------|----------------|----------------|----------------|
Gb :----------------|----------------|----------------|----------------|
Db :0---0---0---0---|0---0---0---0---|5---5---5---5---|5---5---5---5---|
Ab :0---0---0---0---|0---0---0---0---|5---5---5---5---|5---5---5---5---|
Db :0---0---0---0---|0---0---0---0---|5---5---5---5---|5---5---5---5---|

Eb :----------------|----------------|----------------|----------------|
Bb :----------------|----------------|----------------|----------------|
Gb :----------------|----------------|----------------|----------------|
Db :5---5---5---5---|3---3---3---3---|8---8---8---8---|8---8---8---8---|
Ab :5---5---5---5---|3---3---3---3---|8---8---8---8---|8---8---8---8---|
Db :5---5---5---5---|3---3---3---3---|8---8---8---8---|8---8---8---8---|

Eb :----------------|----------------|----------------|----------------|
Bb :----------------|----------------|----------------|----------------|
Gb :----------------|----------------|----------------|----------------|
Db :8---8---8---8---|7---7---7---7---|3---3-3-3-3-3---|----3---3---3---|
Ab :8---8---8---8---|8---8---8---8---|3---3-3-3-3-3---|----3---3---3---|
Db :8---8---8---8---|7---7---7---7---|3---3-3-3-3-3---|----3---3---3---|

Eb :----------------|----------------|----------------|----------------|
Bb :----------------|----------------|----------------|----------------|
Gb :----------------|----------------|----------------|----------------|
Db :3---3-3-3-3-3---|----3---5---5---|0---0-0-0-0-0---|----0---0---0---|
Ab :3---3-3-3-3-3---|----3---5---5---|0---0-0-0-0-0---|----0---0---0---|
Db :3---3-3-3-3-3---|----3---5---5---|0---0-0-0-0-0---|----0---0---0---|

Eb :----------------|| -----------------|----------------|----------------|
Bb :----------------|| -----------------|----------------|----------------|
Gb :----------------||*-----------------|----------------|----------------|
Db :0---0---0---0---||*0----*-----------|0---------------|----------------|
Ab :0---0---0---0---|| 0----*-----------|0---------------|----------------|
Db :0---0---0---0---|| 0---b3-----------|0---------------|----------------|
                      P.M-|

Eb :---------------- 1|------------------|----------------|----------------|
Bb :---------------- ||------------------|----------------|----------------|
Gb :----------------*||------------------|----------------|----------------|
Db :----------------*||0-----------------|0---*-----------|----------------|
Ab :---------------- ||0-----------------|0---*-----------|----------------|
Db :---------------- ||0---<3>-----------|0---*-----------|----------------|

END

            
            
Suggest correction
Creating personal tab
Creating personal tab
You can edit any tab online and save it as your Personal.

You can edit, replace or remove any tab part or add personal notes – all changes will be seen only by you.

Personal tabs can be accessed anytime from any device, even offline.
Learn more »
Give kudos to tab author, rate the tab!
1 2 3 4 5
comments
print report bad tab
guest
You may want to rate the tab now too:
select rating
Wanna post a correction for this tab? Suggest correction