Oops, an error
Loading. Please wait.

Maybe Holding Hands Wasnt Such A Good Idea tab

version 1
version 1

Whole song

Interactive

8,104 views 3 this week
2 commentsread comments
1 2 3 4 5
x 4
add to favorites
×
Save as Personal and add changes to this tab that will be seen only by you. Learn more ›
×
You can save this tab as Personal to edit and correct it or add notes. All changes will be seen only by you. Learn more »
launch autoscroll
font size
0
reset
how to read this tab
guitar tuner
edit
Autoscroll
slow
fast
+/-
esc
set tempo
stop
-------------------------------------------------------------------------------
                             MAYBE HOLDING HANDS WASN'T SUCH A GOOD IDEA - Modern Day Escape
-------------------------------------------------------------------------------
Tabbed by: Marti Rubels
Email: Facebook.com/ModernDayEscape

Tuning: Drop C#

INTRO
Guitar 1
D#|------------------------------|[4 times]
A#|------------------------------|
F#|------------------------------|
C#|---t12h14p0[x4]--t12h15p0[x4]-|
G#|------------------------------|
C#|------------------------------|

Guitar 2
D#|-------------|
A#|-------------|
F#|-------------|
C#|---0--12--10-|
G#|---0--12--10-|
C#|---0--12--10-|

Guitar 1
D#|-----------------------------|[2 times]
A#|-----------------------------|
F#|-----------------------------|
C#|--t15h19p0[x4]--t14h17p0[x4]-|
G#|-----------------------------|
C#|-----------------------------|

Guitar 2
D#|------------------------------------|
A#|------------------------------------|
F#|------------------------------------|
C#|--8-8-8-8-8-8-8-8-8-8-8-8-8-8-8-8-8-|
G#|--8-8-8-8-8-8-8-8-8-8-8-8-8-8-8-8-8-|
C#|--8-8-8-8-8-8-8-8-8-8-8-8-8-8-8-8-8-|
       X X X X X X X X X X X X

Guitar 1 & 2
D#|-----------------------------------------------------------------------------------------|
A#|-----------------------------------------------------------------------------------------|
F#|-----------------------------------------------------------------------------------------|
C#|{0000}0-----0-0-0-0-0-0-0-0-0-0-0-12-(121212)12----12-12-12-10-10-10-10-10-10-10-10------|
G#|{0000}0-----0-0-0-0-0-0-0-0-0-0-0-12-(121212)12----12-12-12-10-10-10-10-10-10-10-10------|
C#|{0000}0-----0-0-0-0-0-0-0-0-0-0-0-12-(121212)12----12-12-12-10-10-10-10-10-10-10-10------|
    XXXX                                 X X X

Guitar 1 & 2
D#|------------------------------------------------------------------------|
A#|------------------------------------------------------------------------|
F#|------------------------------------------------------------------------|
C#|8-(888)8----8-8-8-8-8-8-8-8-8-8-8-8-(888)8----8-8-8-8-8-8-8-10-10-10----|
G#|8-(888)8----8-8-8-8-8-8-8-8-8-8-8-8-(888)8----8-8-8-8-8-8-8-10-10-10----|
C#|8-(888)8----8-8-8-8-8-8-8-8-8-8-8-8-(888)8----8-8-8-8-8-8-8-10-10-10----|
      XXX                               XXX

Guitar 1
D#|--------------------------------------------------------------------------------------------|
A#|------------------------------------------------------------------------------13-13-13-13---|
F#|10-(101010)9----9-9-9-9-10-9-9-9-12-12-12-12-10-(101010)9----9-9-9-9-10-9-9-9-10-10-10-10---|
C#|0--(0 0 0 )0----0-0-0-0-0--0-0-0-0--0--0--0--0--(0 0 0 )0----0-0-0-0-0--0-0-0-0--0--0--0----|
G#|--------------------------------------------------------------------------------------------|
C#|--------------------------------------------------------------------------------------------|

Guitar 2
D#|------------------------------------------------------------------------------------------|
A#|------------------------------------------------------------------------------------------|
F#|------------------------------------------------------------------------------------------|
C#|0-{000}0-----0-0-0-0-0-0-0-0-0-0-0-12-(121212)12----12-12-12-10-10-10-10-10-10-10-10------|
G#|0-{000}0-----0-0-0-0-0-0-0-0-0-0-0-12-(121212)12----12-12-12-10-10-10-10-10-10-10-10------|
C#|0-{000}0-----0-0-0-0-0-0-0-0-0-0-0-12-(121212)12----12-12-12-10-10-10-10-10-10-10-10------|
      XXX                                 X X X

Guitar 1
D#|----------------------------------------------------------------------|
A#|----------------------------------------------------------------------|
F#|10-(101010)9----9-9-9-9-10-9-9-9-12-12-12-12-10-(101010)9----9-9-9----|
C#|0--(0 0 0 )0----0-0-0-0-0--0-0-0-0--0--0--0--0--(0 0 0 )0----0-0-0----|
G#|----------------------------------------------------------------------|
C#|----------------------------------------------------------------------|

Guitar 2
D#|---------------------------------------------------------------|
A#|---------------------------------------------------------------|
F#|---------------------------------------------------------------|
C#|8-(888)8----8-8-8-8-8-8-8-8-8-8-8-8-(888)8----8-8-8-x----------|
G#|8-(888)8----8-8-8-8-8-8-8-8-8-8-8-8-(888)8----8-8-8-x----------|
C#|8-(888)8----8-8-8-8-8-8-8-8-8-8-8-8-(888)8----8-8-8-x----------|
      XXX                               XXX

Guitar 1
D#|------------------------|
A#|------------------------|
F#|9h10p9-h12-p10-p9-\7-/9-|
C#|------------------------|
G#|------------------------|
C#|------------------------|

Guitar 2
D#|----------------------|
A#|8h9p8-h11-p9-p8-\6-/8-|
F#|----------------------|
C#|----------------------|
G#|----------------------|
C#|----------------------|

VERSE 1
Guitar 1
D#|---------------------------------------------------------------------------|
A#|-----------------------------------------------------------------13-13-13--|
F#|10--x10-9--x9-10--x10-9--x9-12-12-12-10--x10-9--x9-10--x10-9--x9-10-10-10--|
C#|0---x0--0--x0-0---x0--0--x0-0--0--0--0---x0--0--x0-0---x0--0--x0-0--0--0---|
G#|---------------------------------------------------------------------------|
C#|---------------------------------------------------------------------------|
        X      X      X      X               X      X      X      X

Guitar 2
D#|-------------------------------------------------------------------------------|
A#|-------------------------------------------------------------------------------|
F#|-------------------------------------------------------------------------------|
C#|0--x0-0--x0-0--x0-0--x0-0-0-(000)-12--x12-12--x12-12--x12-12--x10-10-x10-10-x--|
G#|0--x0-0--x0-0--x0-0--x0-0-0-(000)-12--x12-12--x12-12--x12-12--x10-10-x10-10-x--|
C#|0--x0-0--x0-0--x0-0--x0-0-0-(000)-12--x12-12--x12-12--x12-12--x10-10-x10-10-x--|
       X     X     X     X X X  XXX        X       X       X      X     X

Guitar 1
D#|----------------------------------------------------------------------|
A#|-------------------------10-10-10-10-x-------------------------<13>---|
F#|5--x5-7--x7-9--x9-7--x7--7--7--7--7--7--x7-9--x9-10--x10-9--x9--------|
C#|0--x0-0--x0-0--x0-0--x0--0--0--0--0--0--x0-0--x0-0---x0--0--x0--------|
G#|----------------------------------------------------------------------|
C#|----------------------------------------------------------------------|
       X     X     X     X                  X     X      X      X

Guitar 2
D#|-------------------------------------------------------------------------|
A#|-------------------------------------------------------------------------|
F#|-------------------------------------------------------------------------|
C#|8--x8-8--x8-8--x8-8--x8-8-8-8-(888)-8--x8-8--x8-8--x8-8--x8-10-x0r-------|
G#|8--x8-8--x8-8--x8-8--x8-8-8-8-(888)-8--x8-8--x8-8--x8-8--x8-10-x0r-------|
C#|8--x8-8--x8-8--x8-8--x8-8-8-8-(888)-8--x8-8--x8-8--x8-8--x8-10-x0r-------|
       X     X     X     X X X X  XXX      X     X     X     X     X

Guitar 1 & 2
D#|-------------------------------------------------------------------------|
A#|7---x----7---x--------9---x----9---7---x----7---x---7---x---7---x--------|
F#|10--x----10--x--------12--x----12--10--x----10--x---9---x---9---x--------|
C#|----0r---x---0r-------x---0r---x-------0r-------0r------0r--x---0r-------|
G#|----0r---x---0r-------x---0r---x-------0r-------0r------0r--x---0r-------|
C#|----0r---x---0r-------x---0r---x-------0r-------0r------0r--x---0r-------|
       X        X            X            X        X       X       X

Guitar 1
D#|-----------------------------------------------------------------------|
A#|-----------------------------------------------------------------------|
F#|7------------------------7---------10---------------5-5-x----5-5-x-----|
C#|x------------------------x---------x----------------x-x------x-x-------|
G#|5------------------------5---------8----------------3-3-x----3-3-x-----|
C#|-----------------------------------------------------------------------|

Guitar 2
D#|-----------------------------------------------------------------------|
A#|-----------------------------------------------------------------------|
F#|-----------------------------------------------------------------------|
C#|8------------------------8--------10----------------7-7-x---7-7-x------|
G#|8------------------------8--------10----------------8-8-x---8-8-x------|
C#|8------------------------8--------10----------------7-7-x---7-7-x------|

CHORUS 1
Guitar 1
D#|-----------------------------------------------------------------------------|
A#|-----------------------------------------------------------------------------|
F#|----------14-14-14-14-14-14-14-14-14-14--x---------9-9-9-9-9-9-9-9-x---------|
C#|0-----0---x--x--x--x--x--x--x--x--x--x---0---0-0---x-x-x-x-x-x-x-x-0r-0r-----|
G#|0-----0---8--8--8--8--8--8--8--8--8--8---0---0-0---7-7-7-7-7-7-7-7-0r-0r-----|
C#|0-----0---x------------------------------0---0-0---x---------------0r-0r-----|
                                                                      X  X
Guitar 2
D#|-----------------------------------------------------------------------------------|
A#|-----------------------------------------------------------------------------------|
F#|----------14-14-14-14-14-14-14-14-14-14--x---------14-14-14-14-14-14-14-14-x-------|
C#|0-----0---x--x--x--x--x--x--x--x--x--x---0---0-0---x--x--x--x--x--x--x--x--0r-0r---|
G#|0-----0---12-12-12-12-12-12-12-12-12-12--0---0-0---10-10-10-10-10-10-10-10-0r-0r---|
C#|0-----0---x------------------------------0---0-0---x-----------------------0r-0r---|
                                                                              X  X
Guitar 1
D#|---------------------------------------------------------------------------|
A#|---------------------------------------------------------------------------|
F#|---------------------------------------------------------------------------|
C#|8-8-8-8-8-8-8-8-8-8-8-8-8-8-8-8-10-10-10-10-10-10-10-10-x----------3-p2-p0-|
G#|8-8-8-8-8-8-8-8-8-8-8-8-8-8-8-8-10-10-10-10-10-10-10-10-x--3-h5-3-h5-------|
C#|8-8-8-8-8-8-8-8-8-8-8-8-8-8-8-8-10-10-10-10-10-10-10-10-x------------------|

Guitar 2
D#|------------------------------------------------------------------------------------------|
A#|------------------------------------------------------------------------------------------|
F#|------------------------------------------------------------------------------------------|
C#|12---0-10-0-8-0-7-0-7-8-7-0-5-7---x0---0-h3-p0-h5-p0-h7-p0-0-0-h2-p0-h3-p2-p0-------------|
G#|------------------------------------------------------------------------------------------|
C#|------------------------------------------------------------------------------------------|
   X    X X  X X X X X X X X X X X

Guitar 1
D#|-----------------------------------------------------------------------------|
A#|-----------------------------------------------------------------------------|
F#|----------14-14-14-14-14-14-14-14-14-14--x---------9-9-9-9-9-9-9-9-x---------|
C#|0-----0---x--x--x--x--x--x--x--x--x--x---0---0-0---x-x-x-x-x-x-x-x-0r-0r-----|
G#|0-----0---8--8--8--8--8--8--8--8--8--8---0---0-0---7-7-7-7-7-7-7-7-0r-0r-----|
C#|0-----0---x------------------------------0---0-0---x---------------0r-0r-----|
                                                                      X  X
Guitar 2
D#|-----------------------------------------------------------------------------------|
A#|-----------------------------------------------------------------------------------|
F#|----------14-14-14-14-14-14-14-14-14-14--x---------14-14-14-14-14-14-14-14-x-------|
C#|0-----0---x--x--x--x--x--x--x--x--x--x---0---0-0---x--x--x--x--x--x--x--x--0r-0r---|
G#|0-----0---12-12-12-12-12-12-12-12-12-12--0---0-0---10-10-10-10-10-10-10-10-0r-0r---|
C#|0-----0---x------------------------------0---0-0---x-----------------------0r-0r---|
                                                                              X  X
Guitar 1
D#|------------------------------------------------------------------------------------------|
A#|------------------------------------------------------------------------------------------|
F#|------------------------------------------------------------------------------------------|
C#|8-8-8-8-8-8-8-8-8-8-8-8-8-8-8-8-10-10-10-10-10-10-10-10-x----------3-p2-p0-0-----0----x---|
G#|8-8-8-8-8-8-8-8-8-8-8-8-8-8-8-8-10-10-10-10-10-10-10-10-x--3-h5-3-h5-------0-----0----x---|
C#|8-8-8-8-8-8-8-8-8-8-8-8-8-8-8-8-10-10-10-10-10-10-10-10-x------------------0-----0----x---|

Guitar 2
D#|-----------------------------------------------------------------------------------------------|
A#|-----------------------------------------------------------------------------------------------|
F#|-----------------------------------------------------------------------------------------------|
C#|12---p0-h10-p0-h8-p0-h7-p0-7-h8-p7-0-5-h7---x0---0-h3-p0-h5-p0-h7-p0-0-0-h2-p0-h3-p2-p0-0-----0|
G#|----------------------------------------------------------------------------------------0-----0|
C#|----------------------------------------------------------------------------------------0-----0|

VERSE 2
Guitar 1 & 2
D#|------------------------------------------------------------------------------------------------|
A#|------------------------------------------------------------------------------------------------|
F#|------------------------------------------------------------------------------------------------|
C#|------------------------------------------------------------------------------------------------|
G#|------------------------------------------------------------------------------------------------|
C#|0-0-0-7--7-7-7-7-7-7-7-7-7-7-7-3-3-3-8-8-8-8-8-8-8-8-8-8-8-8-8-7-7-7-10--10-10-10-10-10-10-10-10|
   X X X X  X X X X X X X X X X X X X X X X X X X X X X X X X X X X X X X   X  X  X  X  X  X  X  X

Guitar 1
D#|----------------------------------------------------------------------------------------|
A#|----------------------------------------------------------------------------------------|
F#|----------------------------------------------------------------------------------------|
C#|--------------------0-----0----x----------------------------------------------------8-x-|
G#|10-h12-p0-10-h12-p0-0-----0----x----------------------------------------------------8-x-|
C#|--------------------0-----0----x--------------0-0-0-7---7-7-7-7-7-7-7-7-7-7-7-3-3-3-8-x-|
                                                 X X X X   X X X X X X X X X X X X X X
Guitar 2
D#|------------------------------------------------------------------------------------|
A#|------------------------------------------------------------------------------------|
F#|------------------------------------------------------------------------------------|
C#|----------------0-----0----x----------------------------------------------------8-x-|
G#|7-h8-p0-7-h8-p0-0-----0----x----------------------------------------------------8-x-|
C#|----------------0-----0----x--------------0-0-0-7---7-7-7-7-7-7-7-7-7-7-7-3-3-3-8-x-|
                                             X X X X   X X X X X X X X X X X X X X
Guitar 1
D#|---------------------------------------------------------------------------|
A#|---------------------------------------------------------------------------|
F#|10-9-9-12---12-12-12-12-12-12-12-12-12-12-12-12-12-12----------------------|
C#|x--x-x-x----x--x--x--x--x--x--x--x--x--x--x--x--x--x-----------------------|
G#|8--7-7-10---10-10-10-10-10-10-10-10-10-10-10-10-10-10----------------------|
C#|---------------------------------------------------------------------------|

Guitar 2
D#|---------------------------------------------------------------------------|
A#|---------------------------------------------------------------------------|
F#|---------------------------------------------------------------------------|
C#|8-7-7-10---10-10-10-10-10-10-10-10-10-10-10-7-7-7--------------------------|
G#|8-7-7-10---10-10-10-10-10-10-10-10-10-10-10-8-8-8--------------------------|
C#|8-7-7-10---10-10-10-10-10-10-10-10-10-10-10-7-7-7--------------------------|

CHORUS 2
Guitar 1
D#|-----------------------------------------------------------------------------|
A#|-----------------------------------------------------------------------------|
F#|----------14-14-14-14-14-14-14-14-14-14--x---------9-9-9-9-9-9-9-9-x---------|
C#|0-----0---x--x--x--x--x--x--x--x--x--x---0---0-0---x-x-x-x-x-x-x-x-0r-0r-----|
G#|0-----0---8--8--8--8--8--8--8--8--8--8---0---0-0---7-7-7-7-7-7-7-7-0r-0r-----|
C#|0-----0---x------------------------------0---0-0---x---------------0r-0r-----|
                                                                      X  X
Guitar 2
D#|-----------------------------------------------------------------------------------|
A#|-----------------------------------------------------------------------------------|
F#|----------14-14-14-14-14-14-14-14-14-14--x---------14-14-14-14-14-14-14-14-x-------|
C#|0-----0---x--x--x--x--x--x--x--x--x--x---0---0-0---x--x--x--x--x--x--x--x--0r-0r---|
G#|0-----0---12-12-12-12-12-12-12-12-12-12--0---0-0---10-10-10-10-10-10-10-10-0r-0r---|
C#|0-----0---x------------------------------0---0-0---x-----------------------0r-0r---|
                                                                              X  X
Guitar 1
D#|---------------------------------------------------------------------------|
A#|---------------------------------------------------------------------------|
F#|---------------------------------------------------------------------------|
C#|8-8-8-8-8-8-8-8-8-8-8-8-8-8-8-8-10-10-10-10-10-10-10-10-x----------3-p2-p0-|
G#|8-8-8-8-8-8-8-8-8-8-8-8-8-8-8-8-10-10-10-10-10-10-10-10-x--3-h5-3-h5-------|
C#|8-8-8-8-8-8-8-8-8-8-8-8-8-8-8-8-10-10-10-10-10-10-10-10-x------------------|

Guitar 2
D#|--------------------------------------------------------------------------------|
A#|--------------------------------------------------------------------------------|
F#|--------------------------------------------------------------------------------|
C#|12---0-10-0-8-0-7-0-7-8-7-0-5-7---x0---0-h3-p0-h5-p0-h7-p0-0-0-h2-p0-h3-p2-p0---|
G#|--------------------------------------------------------------------------------|
C#|--------------------------------------------------------------------------------|
   X    X X  X X X X X X X X X X X

Guitar 1
D#|---------------------------------------------------------------------------|
A#|---------------------------------------------------------------------------|
F#|----------14-14-14-14-14-14-14-14-14-14--x---------9-9-9-9-9-9-9-9-x-------|
C#|0-----0---x--x--x--x--x--x--x--x--x--x---0---0-0---x-x-x-x-x-x-x-x-0r-0r---|
G#|0-----0---8--8--8--8--8--8--8--8--8--8---0---0-0---7-7-7-7-7-7-7-7-0r-0r---|
C#|0-----0---x------------------------------0---0-0---x---------------0r-0r---|
                                                                      X  X
Guitar 2
D#|-----------------------------------------------------------------------------------|
A#|-----------------------------------------------------------------------------------|
F#|----------14-14-14-14-14-14-14-14-14-14--x---------14-14-14-14-14-14-14-14-x-------|
C#|0-----0---x--x--x--x--x--x--x--x--x--x---0---0-0---x--x--x--x--x--x--x--x--0r-0r---|
G#|0-----0---12-12-12-12-12-12-12-12-12-12--0---0-0---10-10-10-10-10-10-10-10-0r-0r---|
C#|0-----0---x------------------------------0---0-0---x-----------------------0r-0r---|
                                                                              X  X
Guitar 1
D#|------------------------------------------------------------------------|
A#|------------------------------------------------------------------------|
F#|------------------------------------------------------------------------|
C#|8-8-8-8-8-8-8-8-8-8-8-8-8-8-8-8-10-10-10-10-10-10-10-10-8r-8r--x--7r-7r-|
G#|8-8-8-8-8-8-8-8-8-8-8-8-8-8-8-8-10-10-10-10-10-10-10-10-8r-8r--x--7r-7r-|
C#|8-8-8-8-8-8-8-8-8-8-8-8-8-8-8-8-10-10-10-10-10-10-10-10-8r-8r--x--7r-7r-|

Guitar 2
D#|-------------------------------------------------------------------------------------|
A#|-------------------------------------------------------------------------------------|
F#|-------------------------------------------------------------------------------------|
C#|12---p0-h10-p0-h8-p0-h7-p0-7-h8-p7-0-5-h7---x0---0-h3-p0-h5-p0-h7-p0-8r-8r--x--7r-7r-|
G#|---------------------------------------------------------------------8r-8r--x--7r-7r-|
C#|---------------------------------------------------------------------8r-8r--x--7r-7r-|

BRIDGE
Guitar 1
D#|-------------------------------------------------------------------------------------------|
A#|-------------------------------------------------------------------------------------------|
F#|-------------------------------------------------------------------------------------------|
C#|(000)(000)------------------------(000)(000)(000)---------(000)(000)-----------------------|
G#|(000)(000)------------------------(000)(000)(000)---------(000)(000)-----------------------|
C#|(000)(000)\12\11\10\9\8\7\6\5\4\3-(000)(000)(000)\6\5\4\3-(000)(000)\12\11\10\9\8\7\6\5\4\3|
    XXX  XXX  XXX                          XXX  XXX           XXX  XXX  XXX

Guitar 2
D#|-------------------------------------------------------------------------------------------|
A#|-------------------------------------------------------------------------------------------|
F#|-------------------------------------------------------------------------------------------|
C#|(000)(000)------------------------(000)(000)(000)---------(000)(000)-----------------------|
G#|(000)(000)------------------------(000)(000)(000)---------(000)(000)-----------------------|
C#|(000)(000)/3/4/5/6/7/8/9/10/11/12-(000)(000)(000)/3/4/5/6-(000)(000)/3/4/5/6/7/8/9/10/11/12|
    XXX  XXX  XXX                          XXX  XXX           XXX  XXX  XXX

Guitar 1
D#|------------------|
A#|------------------|
F#|------------------|
C#|8--8--8--10-10-10-|
G#|8--8--8--10-10-10-|
C#|8--8--8--10-10-10-|

Guitar 2
D#|------------------|
A#|------------------|
F#|10-10-10-12-12-12-|
C#|x--x--x--x--x--x--|
G#|8--8--8--10-10-10-|
C#|------------------|

Guitar 1
D#|------------------------------------------------------------------------------------------------|
A#|------------------------------------------------------------------------------------------------|
F#|------------------------------------------------------------------------------------------------|
C#|(000)(000)(000)------------------------(000)(000)---------(000)(000)(000)-----------------------|
G#|(000)(000)(000)------------------------(000)(000)---------(000)(000)(000)-----------------------|
C#|(000)(000)(000)/3/4/5/6/7/8/9/10/11/12-(000)(000)/3/4/5/6-(000)(000)(000)/3/4/5/6/7/8/9/10/11/12|
    XXX  XXX  XXX                          XXX  XXX           XXX  XXX  XXX

Guitar 2
D#|------------------------------------------------------------------------------------------------|
A#|------------------------------------------------------------------------------------------------|
F#|------------------------------------------------------------------------------------------------|
C#|(000)(000)(000)------------------------(000)(000)---------(000)(000)(000)-----------------------|
G#|(000)(000)(000)------------------------(000)(000)---------(000)(000)(000)-----------------------|
C#|(000)(000)(000)\12\11\10\9\8\7\6\5\4\3-(000)(000)\6\5\4\3-(000)(000)(000)\12\11\10\9\8\7\6\5\4\3|
    XXX  XXX  XXX                          XXX  XXX           XXX  XXX  XXX

Guitar 1
D#|------------------|
A#|------------------|
F#|------------------|
C#|5--5--5--8--8--8--|
G#|5--5--5--8--8--8--|
C#|5--5--5--8--8--8--|

Guitar 2
D#|------------------|
A#|------------------|
F#|9--9--9--7--7--7--|
C#|x--x--x--x--x--x--|
G#|7--7--7--5--5--5--|
C#|------------------|


Guitar 1 & 2
D#|--------------------------------------------------------------------------------------------|
A#|--------------------------------------------------------------------------------------------|
F#|--------------------------------------------------------------------------------------------|
C#|10--10--10--10--10--10---10--10--10--10--10--10---0--0--0--0--0--0----10--10--10--10--10--10|
G#|8---8---8---8---8---8----8---8---8---8---8---8----0--0--0--0--0--0----10--10--10--10--10--10|
C#|8---8---8---8---8---8----8---8---8---8---8---8----0--0--0--0--0--0----10--10--10--10--10--10|


Guitar 1
D#|----------------------------------------------------------------------|
A#|----------------------------------------------------------------------|
F#|----------------------------------------------------------------------|
C#|10--10--10--10--10--10---10--10--10--10--10--10---0--0--0--0--0--0----|
G#|8---8---8---8---8---8----8---8---8---8---8---8----0--0--0--0--0--0----|
C#|8---8---8---8---8---8----8---8---8---8---8---8----0--0--0--0--0--0----|


Guitar 2
D#|-------------------------------------------------------------------------|
A#|-------------------------------------------------------------------------|
F#|-------------------------------------------------------------------------|
C#|10--10--10--10--10--10---10--10--10--10--10--10--10/12--9--9--9--9--9--9-|
G#|x---x---x---x---x---x----x---x---x---x---x---x---x  x---x--x--x--x--x--x-|
C#|8---8---8---8---8---8----8---8---8---8---8---8---8/ 10--7--7--7--7--7--7-|

Guitar 1
D#|--------------------------------------------------------------|
A#|--------------------------------------------------------------|
F#|-----------------------------------------------=--------------|
C#|10--10--10--10--10--10----10--x--8----------------------------|
G#|10--10--10--10--10--10----10--x--8----------------------------|
C#|10--10--10--10--10--10----10--x--8----------------------------|

Guitar 2
D#|--------------------------------------------------------------|
A#|--------------------------------------------------------------|
F#|--------------------------------------------------------------|
C#|7--7--7--7--7--7----7--x--7/10-------10--\9---/10--12---\10---|
G#|x--x--x--x--x--x----x--x--x-x--------x----x----x---x-----x----|
C#|5--5--5--5--5--5----5--x--5/8--------8---\7---/8---10---\8----|

Guitar 1&2
D#|-----------------------------------------------------|
A#|-----------------------------------------------------|
F#|-----------------------------------------------------|
C#|3----------/8----------8-8-8-8-8-8-8-8-8-8-8-8-10-x--|
G#|3----------/8----------8-8-8-8-8-8-8-8-8-8-8-8-10-x--|
C#|3----------/8----------8-8-8-8-8-8-8-8-8-8-8-8-10-x--|
                          X X X X X X X X X X X X X

Guitar 1 & 2
D#|------------------------------------|
A#|------------------------------------|
F#|------------------------------------|
C#|3---------8-------3---------8-------|
G#|3---------8-------3---------8-------|
C#|3-[x32]---8-[x32]-3-[x32]---8-[x16]-|

Guitar 1
D#|-------------------------------------------------------------------------|
A#|-------------------------------------------------------------------------|
F#|-------------------------------------------------------------------------|
C#|8---------3---------8----------------------------------------------------|
G#|8---------3---------8----------------------------------------------------|
C#|8-[x16]---3-[x32]---8-[x32]----------------------------------------------|

Guitar 2
D#|--------------------------------------------------------------------------------|
A#|--------------------------------------------------------------------------------|
F#|-------------------------------------------------7-/9/10--9--12b13br12--10-9----|
C#|-------------------------------------------7h8h10-------------------------10----|
G#|10--8--8-h10-p8-\7--h8-p7-h10--7--x--7h8h10-------------------------------------|
C#|--------------------------------------------------------------------------------|

Guitar 2 [cont'd]
D#|-------------------------------------------|
A#|-------------------------------------------|
F#|----------10--------------------12---------|
C#|9-10-9-10----10-9-10--9-10-9-10----10-9-10-|
G#|-------------------------------------------|
C#|-------------------------------------------|
   X X  X X  X  X  X X   X X  X X  X  X  X X

Guitar 1
D#|----------------------------------------------------------------------------------------------|
A#|-------------13-x------------------------------13-p10-x---------------------------------------|
F#|9-h10-p9-h10----10-p9-h10-[x2]-12-h14-p12-h14--------12-p10--------------14--\12-/14--/17-\12-|
C#|-------------------------------------------------------------10--x-10----x----x---x----x---x--|
G#|-------------------------------------------------------------8---x-8-----12--\10-/12--/15-\10-|
C#|-------------------------------------------------------------8---x-8--------------------------|

Guitar 2
D#|-----------------------------------------------------------------------------------------------|
A#|-----------------------------------------------------------------------------------------------|
F#|---------------14-x-------------------------------14-x----------------------10-\9-/10-/12-\9---|
C#|10-h12-p10-h12----12-p10-h12-[x2]-14-h15-p14-h15----15-p14-12p--10--x-10----x---x--x---x---x---|
G#|----------------------------------------------------------------8---x-8-----8--\7-/8--/10-\7---|
C#|----------------------------------------------------------------8---x-8-----x------------------|

CHORUS 3 [3 times]
Guitar 1
D#|-----------------------------------------------------------------------------|
A#|-----------------------------------------------------------------------------|
F#|----------14-14-14-14-14-14-14-14-14-14--x---------9-9-9-9-9-9-9-9-x---------|
C#|8-----8---x--x--x--x--x--x--x--x--x--x---8---8-8---x-x-x-x-x-x-x-x-0r-0r-----|
G#|8-----8---8--8--8--8--8--8--8--8--8--8---8---8-8---7-7-7-7-7-7-7-7-0r-0r-----|
C#|8-----8---x------------------------------8---8-8---x---------------0r-0r-----|
                                                                      X  X
Guitar 2
D#|-----------------------------------------------------------------------------------|
A#|-----------------------------------------------------------------------------------|
F#|----------14-14-14-14-14-14-14-14-14-14--x---------14-14-14-14-14-14-14-14-x-------|
C#|8-----8---x--x--x--x--x--x--x--x--x--x---8---8-8---x--x--x--x--x--x--x--x--0r-0r---|
G#|8-----8---12-12-12-12-12-12-12-12-12-12--8---8-8---10-10-10-10-10-10-10-10-0r-0r---|
C#|8-----8---x------------------------------8---8-8---x-----------------------0r-0r---|
                                                                              X  X
Guitar 1
D#|------------------------------------------------------------------------------------------------|
A#|------------------------------------------------------------------------------------------------|
F#|------------------------------------------------------------------------------------------------|
C#|12-12-12-12-12-12-12-12-12-12-12-12-12-12-12-12-10-10-10-10-10-10-10-10-10-10-10-10-10-10-10-10-|
G#|12-12-12-12-12-12-12-12-12-12-12-12-12-12-12-12-10-10-10-10-10-10-10-10-10-10-10-10-10-10-10-10-|
C#|12-12-12-12-12-12-12-12-12-12-12-12-12-12-12-12-10-10-10-10-10-10-10-10-10-10-10-10-10-10-10-10-|

Guitar 2
D#|----------------------------------------------------------------------------------------|
A#|----------------------------------------------------------------------------------------|
F#|----------------------------------------------------------------------------------------|
C#|12---p0-h10-p0-h8-p0-h7-p0-7-h8-p7-0-5-h7---x0---0-h3-p0-h5-p0-h7-p0-0-0-h2-p0-h2-h3-p2-|
G#|----------------------------------------------------------------------------------------|
C#|----------------------------------------------------------------------------------------|


ENDING
Guitar 1
D#|----------------------------------------------------------------------|
A#|----------------------------------------------------------------------|
F#|------12--------------------------------------------------------------|
C#|10-x--x---------------------------------------------------------------|
G#|8--x--10--------------------------------------------------------------|
C#|8--x------------------------------------------------------------------|

Guitar 2
D#|----------------t24--t23-t22-t21-t20-t19-t18-t17-t16-t15-t14-t13-t12--|
A#|----------------------------------------------------------------------|
F#|----------------------------------------------------------------------|
C#|0--x--2---------------------------------------------------------------|
G#|----------------------------------------------------------------------|
C#|----------------------------------------------------------------------|

************************************
| ()  triplet
| {}  tremolo
| <>  pinch harmonic
| /   slide up
| \   slide down
| h   hammer-on
| p   pull-off
| t   tap
| r   let ring
| X   palm mute
| x   Mute note
| b   Bend
| br  Bend release


************************************

            
            
Suggest correction
Creating personal tab
Creating personal tab
You can edit any tab online and save it as your Personal.

You can edit, replace or remove any tab part or add personal notes – all changes will be seen only by you.

Personal tabs can be accessed anytime from any device, even offline.
Learn more »
comments
print report bad tab
2 comments total.
0 reply
fallenfates 10 Nov 27, 2011 09:06 AM

Marti you god! ahaha

0 reply
Bostonkingkush 10 Feb 10, 2014 04:23 PM

Perfect! So much I didn't even pick up on by just listening and playing along. Thank you so much Marti, if this was actually you who posted this!

guest
You may want to rate the tab now too:
select rating
Wanna post a correction for this tab? Suggest correction