Oops, an error
Loading. Please wait.

I Melt With You Bass Tab

7,433 views 39 this week
no commentswrite comment
1 2 3 4 5
accurate
x 3
add to favorites
launch autoscroll
font size
0
reset
guitar tuner
Tab Pro tools
  • play this tab
  • loop segment
  • change instrument
  • show fretboard
  • metronome
×
Best way to learn
"I Melt With You"
Autoscroll
slow
fast
+/-
esc
set tempo
stop
Contributor
               I'll Melt With You
                 Modern English
   Intro
G||----------------------------|--------------------------|
D||----------------------------|--------------------------|
A||--3--(3)--3--3--3--3--3--3--|--3--3--3--3--3--3--3--3--|
E||----------------------------|--------------------------|


---------------------------|---------------------------|
---------------------------|---------------------------|
--/8--8--8--8--8--8--8--8--|--8--8--8--8--8--8--10\----|
---------------------------|---------------------------|


----------------------------|--------------------------|
----------------------------|--------------------------|
--3--(3)--3--3--3--3--3--3--|--3--3--3--3--3--3--3--3--|
----------------------------|--------------------------|


---------------------------|---------------------------|
---------------------------|---------------------------|
--/8--8--8--8--8--8--8--8--|--8--8--8--8--8--8--10\----|
---------------------------|---------------------------|

Verse
--------------------------|--------------------------|
--------------------------|--------------------------|
--3--3--------3--3--------|--3--3--------3--3--------|
-----------3-----------3--|-----------3-----------3--|


--------------------------|--------------------------|
--3--3--------3--3--------|--3--3--------3--3--------|
-----------3-----------3--|-----------3--------------|
--------------------------|-----------------------3--|


--------------------------|--------------------------|
--------------------------|--------------------------|
--3--3--------3--3--------|--3--3--------3--3--------|
-----------3-----------3--|-----------3-----------3--|


--------------------------|--------------------------|-------------------------|
--3--3--------3--3--------|--3--3--------3--3--------|-----------5--------5----|
-----------3-----------3--|-----------3--------------|--3--3--3-----3--3-------|
--------------------------|-----------------------3--|-------------------------|


--------------------------|-----------------------------|
-----------5--------5/----|-----------10--------10--10--|
--3--3--3-----3--3--------|--8--8--8------8--8----------|
--------------------------|-----------------------------|


----------------------------|-------------------------|
-----------10--------10\----|-----------5--------5----|
--8--8--8------8--8---------|--3--3--3-----3--3-------|
----------------------------|-------------------------|

--------------------------|-----------------------------|
-----------5--------5/----|-----------10--------10--10--|
--3--3--3-----3--3--------|--8--8--8------8--8----------|
--------------------------|-----------------------------|
                            Chorus
--------------------------|----------------------------|
-----------10-------10----|----------------------------|
--8--8--8------8----------|--3--(3)--3--3--3--3--3--3--|
--------------------------|----------------------------|

--------------------------|---------------------------|
--------------------------|---------------------------|
--3--3--3--3--3--3--3--3--|--/8--8--8--8--8--8--8--8--|
--------------------------|---------------------------|

---------------------------|----------------------------|
---------------------------|----------------------------|
--8--8--8--8--8--8--10\----|--3--(3)--3--3--3--3--3--3--|
---------------------------|----------------------------|

--------------------------|---------------------------|
--------------------------|---------------------------|
--3--3--3--3--3--3--3--3--|--/8--8--8--8--8--8--8--8--|
--------------------------|---------------------------|

---------------------------|----------------------------|
---------------------------|----------------------------|
--8--8--8--8--8--8--10\----|--3--(3)--3--3--3--3--3--3--|
---------------------------|----------------------------|

--------------------------|---------------------------|
--------------------------|---------------------------|
--3--3--3--3--3--3--3--3--|--/8--8--8--8--8--8--8--8--|
--------------------------|---------------------------|

---------------------------|----------------------------|
---------------------------|----------------------------|
--8--8--8--8--8--8--10\----|--3--(3)--3--3--3--3--3--3--|
---------------------------|----------------------------|

--------------------------|---------------------------|
--------------------------|---------------------------|
--3--3--3--3--3--3--3--3--|--/8--8--8--8--8--8--8--8--|
--------------------------|---------------------------|

---------------------------|
---------------------------|
--8--8--8--8--8--8--10\----|
---------------------------|

Middle
------------------------|------------------------|----------------------|
------------------------|------------------------|----------------------|
--7----7----7--7--7/----|--10--------10----10----|--12----------------0-|
------------------------|------------------------|----------------------|

----------------------|---------------------|----------------------|
----------------------|---------------------|----------------------|
--0------------5/--7--|--7------------7/----|--10------------10----|
----------------------|---------------------|----------------------|

--------------------|----------------------|---------------------|
--------------------|----------------------|---------------------|
--12----------------|--0------------5/--7--|--7------------7/----|
--------------------|----------------------|---------------------|

----------------------|--------------------|----------------------|
----------------------|--------------------|----------------------|
--10------------10----|--12----------------|--0------------5/--7--|
----------------------|--------------------|----------------------|

Humming Part
-------------------|-------------------|
-------------------|-------------------|
--0----------------|--3----------------|
-------------------|-------------------|

---------------------|-------------------|----------------------|
---------------------|-------------------|----------------------|
---------------3/----|--8----------------|---------------10\----|
---------------------|-------------------|----------------------|

-------------------|---------------------|-------------------|
-------------------|---------------------|-------------------|
--3----------------|---------------3/----|--8----------------|
-------------------|---------------------|-------------------|
                       Ending
----------------------|--------------------------|--------------------------|
----------------------|--------------------------|--------------------------|
---------------10\----|--3--3--3--3--3--3--3--3--|--3--3--3--3--3--3--3--3--|
----------------------|--------------------------|--------------------------|

-------------------------------|-----------------------------|
---------10--10--------10--10--|--------10--10---------------|
--/8--8----------8--8----------|--8--8----------8--8--10\----|
-------------------------------|-----------------------------|

--------------------------|--------------------------|
--------------------------|--------------------------|
--3--3--3--3--3--3--3--3--|--3--3--3--3--3--3--3--3--|
--------------------------|--------------------------|

-------------------------------|-----------------------------|
---------10--10--------10--10--|--------10--10---------------|
--/8--8----------8--8----------|--8--8----------8--8--10\----|
-------------------------------|-----------------------------|

--------------------------|--------------------------|
--------------------------|--------------------------|
--3--3--3--3--3--3--3--3--|--3--3--3--3--3--3--3--3--|
--------------------------|--------------------------|

-------------------------------|-----------------------------|
---------10--10--------10--10--|--------10--10---------------|
--/8--8----------8--8----------|--8--8----------8--8--10\----|
-------------------------------|-----------------------------|
comments
We did not receive enough feedback on this tab! Please rate:
print report bad tab
1 2 3 4 5
I want to post or [tab]
guest
You may want to rate the tab now too:
select rating
Please do not post tabs as comments. Select "correction" instead!