Oops, an error
Loading. Please wait.

A Life Of Arctic Sounds tab

7,467 views 12 this week
3 commentsread comments
1 2 3 4 5
x 3
add to favorites
×
Save as Personal and add changes to this tab that will be seen only by you. Learn more ›
×
You can save this tab as Personal to edit and correct it or add notes. All changes will be seen only by you. Learn more »
launch autoscroll
font size
0
reset
how to read this tab
guitar tuner
edit
Autoscroll
slow
fast
+/-
esc
set tempo
stop
A LIFE OF ARCTIC SOUNDS
by Modest Mouse

Tab by Devin Miller
(irish__nugget@hotmail.com)

Tuning: Standard EADGBe

Legend:
| s  slide down
| p  pull-off
| +  natural harmonic
| x  dead note

Most of the song is palm-muted, or somewhat palm-muted.

-----------------INTRO-----------------

e|-----------------------------------|
B|-----------------------------------|
G|-----------------------------------|
D|--s7-----7-7-7-7--4-----4-----4----|
A|--s7-----7-7-7-7--5-5-5-5-5-5-5-0--|
E|--s5-----5-5-5-5-------------------|

-----------------TRANSITION-----------------

e|-----------------|
B|-----------------|
G|-----------------|
D|----4-0---4-0----|
A|--5-----5-----0--|
E|-----------------|

-----------------BRIDGE-----------------

e|----------------------------|
B|----------------------------|
G|----------------------------|
D|--s7----4------2-0---2-0----|
A|--s7----5----4-----4-----0--|
E|--s5------------------------|

-----------------VERSE-----------------

e|-------------------------------------|
B|-------------------------------------|
G|-------------------------------------|
D|----7-0---7-0---0-----0-----0------0-|
A|--5-----5-----5-----7-----7---0------|
E|------------------9-----9--------9---|

(Variation)
e|----------------------------------------|
B|----------------------------------------|
G|----------------------------------------|
D|----7-0---7p0---7-0-------0-----0-------|
A|--5-----5-----5-------7h0---7h0---7-0---|
E|--------------------9-------------------|

Guitar 2 during Verse:
e|--------------------------------|
B|--------------------------------|
G|--9--9--9--9--9--9-11--11--11---|
D|--x--x--x--x--x--x-x---x---x----|
A|--7--7--7--7--7--7-9---9---9----|
E|--------------------------------|

-----------------CHORUS-----------------

e|--------------------------------------------------------------|
B|--------------------------------------------------------------|
G|--11--x-x-11--x-11--11--x-11--x-x-9--x-x-9--x-9--9--x-9--x-x--|
D|--x---x-x-x---x-x---x---x-x---x-x-x--x-x-x--x-x--x--x-x--x-x--|
A|--9---x-x-9---x-9---9---x-9---x-x-7--x-x-7--x-7--7--x-7--x-x--|
E|--------------------------------------------------------------|

Guitar 2:
e|------------------------------------|
B|------------------------------------|
G|--7--9------------------------------|
D|--------9-7-9-7-----9--7------------|
A|--------------------------9-7-9-7---|
E|------------------------------------|

-----------------OUTRO ("I..MIGHT...BE...")-----------------

e|-------------------------------------------10+--------
B|-------------------------------------------10+--10+---
G|--11--x-x-x--x-x--x--x---------------------10+--10+---
D|--x---x-x-x--x-x--x--x--11--x-x-x--x-x--x--10+--10+---
A|--9---x-x-x--x-x--x--x--x---x-x-x--x-x--x--10+--10+---
E|------------------------9---x-x-x--x-x--x-------------

  ------------------------------------------------------|
  ------------------------------------------------------|
  --11--x-x-x--x-x--x--4+-3+---6------------------------|
  --x---x-x-x--x-x--x--4+-3+---x------------------------|
  --9---x-x-x--x-x--x--4+-3+---4------------------------|
  ------------------------------------------------------|


e-mail if you got any questions about 'er.

=========================================================================

            
            
Suggest correction
Creating personal tab
Creating personal tab
You can edit any tab online and save it as your Personal.

You can edit, replace or remove any tab part or add personal notes – all changes will be seen only by you.

Personal tabs can be accessed anytime from any device, even offline.
Learn more »
Give kudos to tab author, rate the tab!
1 2 3 4 5
comments
print report bad tab
3 comments total.
+1 reply
pastfatalaties 15 Jul 20, 2007 11:31 AM

thank you for this

0 reply
Knifemare 10 Oct 12, 2013 07:43 AM

yes thanks!

+1 reply
travisalan 10 Apr 12, 2014 01:34 AM

I'm pretty sure that the verse is actually played like this

e|----------------------------------|
B|----------------------------------|
G|----------------------------------|
D|----7-0---7-0---0-----0-----0-----|
A|--9-----9-----9-----7-----7---0---|
E|------------------9-----9---------|


Same correction would, of course, apply to the verse variation as well

guest
You may want to rate the tab now too:
select rating
Wanna post a correction for this tab? Suggest correction