Oops, an error
Loading. Please wait.

Black Cadillacs Bass Tab

10,157 views 6 this week
no commentswrite comment
1 2 3 4 5
x 10
add to favorites
launch autoscroll
font size
0
reset
guitar tuner
×
Best way to learn
"Black Cadillacs"
Autoscroll
slow
fast
+/-
esc
set tempo
stop
Author
Tabbed By : Clay Wengreen
e-mail: clay8692@yahoo.com

Tuning: Standard

Intro
G|--------------------------------------------------|
D|------12-9-------12----------12---------12--------|
A|-9/10-------9/10----10--9/10----12--9/10----12----|
E|--------------------------------------------------|

And it's true...
G|---------11----------12----------9----------9----|
D|------12----------12----------12---------12------|
A|-9/10--------9/10--------9/10-------9/10---------|
E|-------------------------------------------------|


G|----------------------------------------------------------|
D|------12-9-------12----------12---------12----------12----|
A|-9/10-------9/10----10--9/10----12--9/10----12--9/10------|
E|----------------------------------------------------------|

Verse 2x (0:24)

Done done done...
G|----------------------------12-------9-9------------------------|
D|-------------------10-10-10----10-12-----12-12-9----------12----|
A|-12-12-12-10----10-------------------------------10-10-10----10-|
E|-------------12-------------------------------------------------|

G|----------------------------12-------9-9-9-9----9-9-------|
D|-------------------10-10-10----10-12---------12-----12-12-|
A|-12-12-12-10----10----------------------------------------|
E|-------------12-------------------------------------------|


(0:56)
G|---------------------------------------------9-9-------|
D|-8-8--8-8-------10-10--9-9--7-7--7-7--10-10------12-12-|
A|-----------8-8-----------------------------------------|
E|-------------------------------------------------------|

G|---------7-------7---------------------|
D|-8-8-8-8---8-8-8---8---------10-10-9-9-|
A|---------------------8-8-8-8-----------|
E|---------------------------------------|

G|-------5-----------5---------------------9-9--------|
D|-7-7-7---7-5-7-7-7---7-5--10-10-10-10-12-----12-12/-|
A|----------------------------------------------------|
E|----------------------------------------------------|

(little piano break thing (1:33))
And it's true...
G|--------------------------------------------------|
D|------12-9-------12----------12---------12--------|
A|-9/10-------9/10----10--9/10----12--9/10----12----|
E|--------------------------------------------------|

G|---------11----------12----------9----------9----|
D|------12----------12----------12---------12------|
A|-9/10--------9/10--------9/10-------9/10---------|
E|-------------------------------------------------|

G|------------------------------------|
D|------12-9-------12----------12-----|
A|-9/10-------9/10----10--9/10----12~-|
E|------------------------------------|

(2:00)Same as before but w/ variations.
G|----------------------------12-------9-9------------------------|
D|-------------------10-10-10----10-12-----12-12-9----------12----|
A|-12-12-12-10----10-------------------------------10-10-10----10-|
E|-------------12-------------------------------------------------|

G|--------------------------------9-9-9-9-9-9-7-7-----------------|
D|-------------------10-10\7-7------------------------------------|
A|-12-12-12-10----10-----------10-7-7-7-7-7-7-5-5-----------------|
E|-------------12-------------------------------------------------|

G|-------------------------------------9-9------------------------|
D|----------------12-10-10-10----10-12-----12-12-9----------12----|
A|-12-12-12-10-12-------------12-------------------10-10-10----10-|
E|----------------------------------------------------------------|

G|-------------------------------------9-9-9-9----9-9----------|
D|----------------12-10-10-10----10-12---------12-----12-12----|
A|-12-12-12-10-12-------------12----------------------------12-|
E|-------------------------------------------------------------|
Suggest correction
comments
print report bad tab
guest
You may want to rate the tab now too:
select rating
Wanna post a correction for this tab? Suggest correction