Oops, an error
Loading. Please wait.
We have an official Broke tab made by UG professional guitarists. Check out the tab »
×
3,844 views 6 this week
2 commentsread comments
1 2 3 4 5
x 3
add to favorites
×
Save as Personal and add changes to this tab that will be seen only by you. Learn more ›
×
You can save this tab as Personal to edit and correct it or add notes. All changes will be seen only by you. Learn more »
launch autoscroll
font size
0
reset
guitar tuner
edit
Autoscroll
slow
fast
+/-
esc
set tempo
stop
Author
-----------------------------------------------------------------
Broke - Modest Mouse
-----------------------------------------------------------------

Tabbed By:Rhys Gerwin 
e-mail:jiraoxys7@hotmail.com

Tuning:EADGBe


(played throughout the song)
G|-------8-8---|
D|-----------9-|
A|-7--7--------|
E|-------------|

(intro to ending jam)
G|-------8-8------8/11\-|
D|-----------9----------|
A|-7--7---------7-------|
E|----------------------|

(last bassline)
G|-----------8-8-----|
D|---------------9-9-|
A|-7-7-7-7-7---------|
E|-------------------|

| /  slide up
| \  slide down
| h  hammer-on
| p  pull-off
| ~  vibrato
| +  harmonic
| x  Mute note

            
            
Suggest correction
Creating personal tab
Creating personal tab
You can edit any tab online and save it as your Personal.

You can edit, replace or remove any tab part or add personal notes – all changes will be seen only by you.

Personal tabs can be accessed anytime from any device, even offline.
Learn more »
Give kudos to tab author, rate the tab!
1 2 3 4 5
comments
print report bad tab
2 comments total.
0 reply
onlymodestmouse 2,350 Nov 07, 2006 08:44 AM

i forgot to say why 4

you missed the second part of this riff:

G|----8-8---------8-8----------|
D|--------9-----------9--------|
A|-7---------------------------|
E|-------------7---------------|

0 reply
the piper 1,413 Nov 18, 2006 08:46 PM

oh shieth.... well maybe my ears just aren't as good as yours.

guest
You may want to rate the tab now too:
select rating
Wanna post a correction for this tab? Suggest correction