Oops, an error
Loading. Please wait.

Bury Me With It tab

version 2
version 2

Whole song

Interactive

19,185 views 9 this week
1 commentread comment
1 2 3 4 5
x 6
add to favorites
×
Save as Personal and add changes to this tab that will be seen only by you. Learn more ›
×
You can save this tab as Personal to edit and correct it or add notes. All changes will be seen only by you. Learn more »
launch autoscroll
font size
0
reset
how to read this tab
guitar tuner
edit
Autoscroll
slow
fast
+/-
esc
set tempo
stop
Author
Difficulty
Song: Bury Me With It
Band: Modest Mouse
Album: Good News For People Who Love Bad News
Tabbed By: O-52-A-50-R

NOTES: There is only one, 3-star regular guitar tab for this song, so I figured I’d 
give it a shot!

KEY KEY KEY KEY KEY KEY KEY KEY KEY KEY KEY KEY KEY KEY KEY

Parenthesis ( ) are for optional notes

Rectangular parenthesis? [ ] are for the bass notes

* In the song, only single notes are played but with the combination of the effect and 
bass it seems fuller.
If you are playing alone all of the notes together add to the total sound :)

KEY KEY KEY KEY KEY KEY KEY KEY KEY KEY KEY KEY KEY KEY KEY


Intro *I realize this may get confusing... If it does get confusing ignore all the 
and just play the notes

|--x----x---x----x----x---x----x----x---x----x----x---x--|
|--9----9---x---10---10---x---12---12---x---12---12---x--|
|(11)-(11)--x---(9)--(9)--x--(14)-(14)--x--(14)-(14)--x--|
|--x----x---x----x----x---x----x----x---x----x----x---x--|
|-[9)--[9]--x--[10]-[10]--x--[12]-[12]--x--[12]-[12]--x--|
|--x----x---x----x----x---x----x----x---x----x----x---x--|

^ (2x)

The second time around “Untitled - Guitar 2” plays this beginning on the 2nd group of chords.

It is very faint:

|-------------------------------------------------------|
|-------------------------------------------------------|
|-------------------------------------------------------|
|----------------------------/9--/9---------/9--/9------|
|--------------/11--/11---------------------------------|
|-------------------------------------------------------|

Verse 1: (bassline 2x)

...bass

Chorus 1: (2x)

“Untitled - Guitar 1”

|--x----x---x----x----x---x----x----x---x----x----x---x--|
|--9----9---x---10---10---x---12---12---x---12---12---x--|
|(11)-(11)--x---(9)--(9)--x--(14)-(14)--x--(14)-(14)--x--|
|--x----x---x----x----x---x----x----x---x----x----x---x--|
|-[9)--[9]--x--[10]-[10]--x--[12]-[12]--x--[12]-[12]--x--|
|--x----x---x----x----x---x----x----x---x----x----x---x--|

“Untitled - Guitar 2”

|------------9----9----12-9----9-10-10-10-9-|
|---10----10---10---10------10--------------|
|11----11-----------------------------------|
|-------------------------------------------|
|-------------------------------------------|
|-------------------------------------------|

Verse 2: (Bassline 2x)

...bass

Chorus 2: (2x)

“Untitled - Guitar 1”

|--x----x---x----x----x---x----x----x---x----x----x---x--|
|--9----9---x---10---10---x---12---12---x---12---12---x--|
|(11)-(11)--x---(9)--(9)--x--(14)-(14)--x--(14)-(14)--x--|
|--x----x---x----x----x---x----x----x---x----x----x---x--|
|-[9)--[9]--x--[10]-[10]--x--[12]-[12]--x--[12]-[12]--x--|
|--x----x---x----x----x---x----x----x---x----x----x---x--|

“Untitled - Guitar 2”

|------------9----9----12-9----9-10-10-10-9-|
|---10----10---10---10------10--------------|
|11----11-----------------------------------|
|-------------------------------------------|
|-------------------------------------------|
|-------------------------------------------|
Verse 3: (bassline 2x)

...bass

Chorus 3:

“Untitled - Guitar 1”

|--x----x---x----x----x---x----x----x---x----x----x---x--|
|--9----9---x---10---10---x---12---12---x---12---12---x--|
|(11)-(11)--x---(9)--(9)--x--(14)-(14)--x--(14)-(14)--x--|
|--x----x---x----x----x---x----x----x---x----x----x---x--|
|-[9)--[9]--x--[10]-[10]--x--[12]-[12]--x--[12]-[12]--x--|
|--x----x---x----x----x---x----x----x---x----x----x---x--|

“Untitled - Guitar 2”

|------------9----9----12-9----9-10-10-10-9-|
|---10----10---10---10------10--------------|
|11----11-----------------------------------|
|-------------------------------------------|
|-------------------------------------------|
|-------------------------------------------|

Verse 4: (bassline 2x)

...bass

Chorus 4:

“Untitled - Guitar 1”

|--x----x---x----x----x---x----x----x---x----x----x---x--|
|--9----9---x---10---10---x---12---12---x---12---12---x--|
|(11)-(11)--x---(9)--(9)--x--(14)-(14)--x--(14)-(14)--x--|
|--x----x---x----x----x---x----x----x---x----x----x---x--|
|-[9)--[9]--x--[10]-[10]--x--[12]-[12]--x--[12]-[12]--x--|
|--x----x---x----x----x---x----x----x---x----x----x---x--|

“Untitled - Guitar 2”

|------------9----9----12-9----9-10-10-10-9-|
|---10----10---10---10------10--------------|
|11----11-----------------------------------|
|-------------------------------------------|
|-------------------------------------------|
|-------------------------------------------|

Bridge:

|-9----7----5---------|
|-x-xx-x-xx-x-xx-7-xx-|
|-x-xx-x-xx-x-xx-x-xx-| (2x)
|11----9----7----x----|
|----------------9----|
|---------------------|

|----------------------------------|
|----------------------------------|
|7-7-7-7-7-7-7-7-7-6-6-6-6-6-6-6-6-|
|----------------------------------|
|----------------------------------|
|----------------------------------|


|-9----7----5---------|
|-x-xx-x-xx-x-xx-7-xx-|
|-x-xx-x-xx-x-xx-x-xx-| (Repeat ‘til end of bridge)
|11----9----7----x----|
|----------------9----|
|---------------------|


After-Bridge Riff

|-----------------------------------------------|
|-7---7--7--8----8---8--10---10--8-10b11r10-8---|
|---------------------------------------------9-|
|-----------------------------------------------|
|[9)-[9]---[10]-[10]---[12]-[12]---[12]-[12]----|
|-----------------------------------------------|


Verse 5

|-----------------xxxxxxx|
|12---------------xxxxxxx|
|---12-12---------xxxxxxx|
|---------11p9----xxxxxxx|
|--------------9--xxxxxxx|
|-----------------xxxxxxx|

Chorus 5

|-----------------------------------------------|
|-7---7--7--8----8---8--10---10--8-10b11r10-8---|
|---------------------------------------------9-|
|-----------------------------------------------|
|[9)-[9]---[10]-[10]---[12]-[12]---[12]-[12]----| (2x)
|-----------------------------------------------|

Verse 6

|--------------|
|12-12---------|
|------12p11-9-|
|--------------|
|--------------|
|--------------|

Chorus 6

“Untitled - Guitar 1”

|--x----x---x----x----x---x----x----x---x----x----x---x--|
|--9----9---x---10---10---x---12---12---x---12---12---x--|
|(11)-(11)--x---(9)--(9)--x--(14)-(14)--x--(14)-(14)--x--|
|--x----x---x----x----x---x----x----x---x----x----x---x--|
|-[9)--[9]--x--[10]-[10]--x--[12]-[12]--x--[12]-[12]--x--|
|--x----x---x----x----x---x----x----x---x----x----x---x--|

“Untitled - Guitar 2”

|------------9----9----12-9----9-10-10-10-9-|
|---10----10---10---10------10--------------|
|11----11-----------------------------------|
|-------------------------------------------|
|-------------------------------------------|
|-------------------------------------------|


Bridge 2

|-9----7----5----2----|
|-x-xx-x-xx-x-xx-x-xx-|
|-x-xx-x-xx-x-xx-x-xx-|
|11----9----7----4----| (repeat until outro)
|-x----x----x----x----|
|-9----7----5----2----|

Outro

|--x----x---x----x----x---x----x--|
|--9----9---x---10---10---x---12--|
|(11)-(11)--x---(9)--(9)--x--(14)-|
|--x----x---x----x----x---x----x--|
|-[9)--[9]--x--[10]-[10]--x--[12]-|
|--x----x---x----x----x---x----x--|


Everything goes in order with the song, hope it helps! :D

-------------------------------
Tablature Legend

/ or \ = slide up or down
X = palm mute
-------------------------------

            
            
Suggest correction
Creating personal tab
Creating personal tab
You can edit any tab online and save it as your Personal.

You can edit, replace or remove any tab part or add personal notes – all changes will be seen only by you.

Personal tabs can be accessed anytime from any device, even offline.
Learn more »
comments
print report bad tab
1 comment total.
+2 reply
DrSatan666 71 Jul 18, 2009 04:33 AM

Looks great, but a little lazy on the chorus lead. Without my corrections, 4*. With them, definitely 5*.Almost all of the choruses are variations:

Chorus 1
|------------9----9-------9----9-10-9-10-9-|
|---10----10---10---10-12---12-------------|
|11----11----------------------------------|
|------------------------------------------|
|------------------------------------------|
|------------------------------------------|

|------------9----9-------9----9-10-9-|
|---10----10---10---10-12---12--------|
|11----11-----------------------------|
|-------------------------------------|
|-------------------------------------|
|-------------------------------------|

Chorus 2
|------------9----9-------9----9-10-9-10-9-|
|---10----10---10---10-12---12-------------|
|11----11----------------------------------|
|------------------------------------------|
|------------------------------------------|
|------------------------------------------|

|------------9----9-------9----9----------------|
|---10----12---12---12-12---12---12-10-12-10----|
|11----11------------------------------------11-|
|-----------------------------------------------|
|-----------------------------------------------|
|-----------------------------------------------|

Chorus 3
|------------9----9-------9----9-10-9-------|
|---10----10---10---10-12---12--------12-10-|
|11----11-----------------------------------|
|-------------------------------------------|
|-------------------------------------------|
|-------------------------------------------|

|------------9----9-------9----9-10-9-|
|---10----10---10---10-12---12--------|
|11----11-----------------------------|
|-------------------------------------|
|-------------------------------------|
|-------------------------------------|

Chorus 4
|10-9-10-9-10-9-10-9-10-9-10-9-10-9-------|
|-----------------------------------12-10-|
|-----------------------------------------|
|-----------------------------------------|
|-----------------------------------------|
|-----------------------------------------|

|10-9-10-9-10-9----------|
|---------------12-10-10-|
|------------------------|
|------------------------|
|------------------------|
|------------------------|

Chorus 6
|------------9----9-------9----9-10-9-10-9-|
|---10----10---10---10-12---12-------------|
|11----11----------------------------------|
|------------------------------------------|
|------------------------------------------|
|------------------------------------------|

|------------10-9--------------------------|
|---10----10------12-10-10-----------------|
|11----11----------------------------------|
|------------------------------------------|
|------------------------------------------|
|------------------------------------------|

Sorry it's so long.

guest
You may want to rate the tab now too:
select rating
Wanna post a correction for this tab? Suggest correction