Oops, an error
Loading. Please wait.

Convenient Parking tab

version 2
version 2

Whole song

7,197 views 9 this week
2 commentsread comments
1 2 3 4 5
x 5
add to favorites
×
Save as Personal and add changes to this tab that will be seen only by you. Learn more ›
×
You can save this tab as Personal to edit and correct it or add notes. All changes will be seen only by you. Learn more »
launch autoscroll
font size
0
reset
how to read this tab
guitar tuner
edit
Autoscroll
slow
fast
+/-
esc
set tempo
stop
Author
Difficulty
Modest Mouse
Standard Tuning (EADGBe)
Conveient Parking
Tabbed By: Rusty Shackleferd (tonyb10)


Intro and played during verses

e---------------------------------/---------------|
B--------------------------------/----------------|
G-------------------------------/-----------------|
D------------------------------/------6-----------|
A-------7777--999-7-9--79-7---/-------^-----------|
E--9999----------------------/--------^-----------|
  Sometimes this is             First Note Played
  played plam muted             With Heavy Bending

Chorus                        Lead Guitar

e-------------------------/---------------------------|
B------------------------/----------------------------|
G---6----9--------------/-----------------------------|
D---6----9-------------/------------------------------|
A---4----7------------/--------77777777777------------|
E--------------------/---9999-------------------------|

Play as many times as needed


Fill        Sometimes played during verses and played in the outro.

e-----------------------------------|
B-----------------------------------|
G----9---------6--------------------|
D-----------------------------------|
A-----------------------------------|
E-----------------------------------|


Outro
             Riff 1                                   Riff 2
e-------------------------------------------/-------------------------------|
B------------------------------------------/--------------------------------|
G-----------------------------------------/---------------------------------|
D------7--------7---------7----7----7----/----7------7-------7b-------------|
A--7-9-----7--9------7--9----9---9------/-7-9----7-9-----7-9----------------|
E--------------------------------------/------------------------------------|

            
            
Suggest correction
Creating personal tab
Creating personal tab
You can edit any tab online and save it as your Personal.

You can edit, replace or remove any tab part or add personal notes – all changes will be seen only by you.

Personal tabs can be accessed anytime from any device, even offline.
Learn more »
comments
print report bad tab
2 comments total.
0 reply
EL Mariachi 94 17 Jun 18, 2007 11:58 AM

I'm pretty sure Issac uses more chords in the chorus.

0 reply
seapuppy 105 Oct 25, 2014 07:29 PM

Tab incomplete. intro should be chords, and the chorus isn't even half complete. the chorus is more than 2 chords, maybe at least 4

guest
You may want to rate the tab now too:
select rating
Wanna post a correction for this tab? Suggest correction