Oops, an error
Loading. Please wait.

Custom Concern tab

version 2
version 2

Whole song

Interactive

1,765 views 1 this week
1 commentread comment
1 2 3 4 5
2 more votes to show rating
add to favorites
×
Save as Personal and add changes to this tab that will be seen only by you. Learn more ›
×
You can save this tab as Personal to edit and correct it or add notes. All changes will be seen only by you. Learn more »
launch autoscroll
font size
0
reset
how to read this tab
guitar tuner
edit
Autoscroll
slow
fast
+/-
esc
set tempo
stop
Author
Song: Custom Concern
Album: This is a long drive for someone with nothing to think about
Music by: Modest Mouse
Tab by: Devin10k

This is a real simple song, with just one riff repeating for its entirety
(not including various bizarre overdubbed stuff). But then if it was
difficult, i wouldnt be able to tab it :)

E--3-3---3--3--3-3---------|
A------5--2--------0h2-5---|
D--------------------------|
G--------------------------|   (x2)
B--------------------------|
E--------------------------|

E--5-5---5--5-5---5------|
A------3--3-----3--3-----|
D------------------------|
G------------------------|     (x2)
B------------------------|
E------------------------|

E--3------3---------|
A---2h3p2--2h3p2----|
D-------------------|    (x2)
G-------------------|
B-------------------|
E-------------------|

E--1-1---1--1-1---1-----|
A------3--3-----3--3----|
D-----------------------|
G-----------------------|    (x2)
B-----------------------|
E-----------------------|

-Devin10k

            
            
Suggest correction
Creating personal tab
Creating personal tab
You can edit any tab online and save it as your Personal.

You can edit, replace or remove any tab part or add personal notes – all changes will be seen only by you.

Personal tabs can be accessed anytime from any device, even offline.
Learn more »
Give kudos to tab author, rate the tab!
1 2 3 4 5
comments
print report bad tab
1 comment total.
0 reply
lilegghead18 37 Mar 08, 2014 09:51 AM

You probably already know this by now, but... it's upside down :)

guest
You may want to rate the tab now too:
select rating
Wanna post a correction for this tab? Suggest correction