Oops, an error
Loading. Please wait.

Dance Hall bass

version 2
version 2

Whole song

2,249 views 6 this week
no commentswrite comment
1 2 3 4 5
x 3
add to favorites
×
Save as Personal and add changes to this tab that will be seen only by you. Learn more ›
×
You can save this tab as Personal to edit and correct it or add notes. All changes will be seen only by you. Learn more »
launch autoscroll
font size
0
reset
guitar tuner
edit
Autoscroll
slow
fast
+/-
esc
set tempo
stop
Author
Difficulty
Modest Mouse - Dance Hall
Bass Tabbed by Sam Hughes, st-hughes@hotmail.com


Intro 1
G|-------------------------999999999------------------------------|
D|---------5555555599999999---------------------------------------|
A|-77777777-------------------------------------------------------|
E|----------------------------------------------------------------|

G|-------------------------99-779---------------------------------|
D|---------5555555599999999-----x99-77----------------------------|
A|-77777777-------------------------------------------------------|
E|----------------------------------------------------------------|

Main Verses & Chorus
G|------------------------------------99-779----------------------|
D|-------------^5555^55^55^9999^99^99------x99-77-----------------|
A|-7^7777^77^77---------------------------------------------------|
E|----------------------------------------------------------------|

Bridge 1
G|-----------------------------------999999-----------------------|
D|-------------^5555^55^55^9999^99^99------7h99p7-----------------|
A|-7^7777^77^77---------------------------------------------------|
E|----------------------------------------------------------------|

Bridge 2
G|------------------------------------9999999---------------------|
D|-------------^5555^55^55^9999^99^99-----------------------------|
A|-7^7777^77^77---------------------------------------------------|
E|----------------------------------------------------------------|

Mid8 (play both)
G|-----------------------x7------5h7/11p999999--------------------|
D|-------7h9p9/5------5h7--999999-------------7h99p7--------------|
A|-777777-------555555--------------------------------------------|
E|----------------------------------------------------------------|

G|-----------------------x7--------99------9----------------------|
D|-------7h9p9/5------5h7--99999999---1212-x99-77-----------------|
A|-777777-------555555--------------------------------------------|
E|----------------------------------------------------------------|

Finish on 7 on the A string.


Song order:
Intro 1
Intro 2
Main Verse/Chorus (MVC)
MVC
MVC
Bridge1
Mid8
MVC
MVC
MVC
Bridge2
Mid8
MVC
MVC
MVC Finish on 7 on the A string.

Pretty sure this is 100% correct. If not, it's better than the other bass tabs available 
it (november 2009)

            
            
Suggest correction
Creating personal tab
Creating personal tab
You can edit any tab online and save it as your Personal.

You can edit, replace or remove any tab part or add personal notes – all changes will be seen only by you.

Personal tabs can be accessed anytime from any device, even offline.
Learn more »
Give kudos to tab author, rate the tab!
1 2 3 4 5
comments
print report bad tab
guest
You may want to rate the tab now too:
select rating
Wanna post a correction for this tab? Suggest correction