Oops, an error
Loading. Please wait.

Dashboard Tab

version 1
version 1

Intro

Whole song

Interactive

100,250 views 117 this week
8 commentsread comments
1 2 3 4 5
x 33
add to favorites
launch autoscroll
font size
0
reset
how to read this tab
guitar tuner
Autoscroll
slow
fast
+/-
esc
set tempo
stop
Help us to improve Ultimate-Guitar.com Take our survey!
×
Difficulty
intermediate
Standard Tuning (e-a-d-g-b-e):

[Intro]
e|-9----7-------7--9----5----3-------3-------------------5-------------------|
B|-7----7----7--7--7----3----3----3--3----5/7----5-------5----5--7----5------|
G|-7----7----7--7--7----4----4----4--4----4/6----6----6--6----6--6----6------|
D|----------------------------------------5/7----7----7--7----7--7----7------|
A|---------------------------------------------------------------------------|
E|---------------------------------------------------------------------------|

e|----5-------------------7--9---------------|
B|----5------8----7----7--7--7---------------|
G|----6------7----7----7--7--7----(etc...)---|
D|-7--7------9----9--------------------------|
A|-------------------------------------------|
E|-------------------------------------------|

[Riff]
e|-----------------------------------------------|
B|-----------------------------------------------|
G|-9--9--9-9-9--7--6----9----9--9--9-9-9--7-6----|
D|-----------------------------------------------|
A|-----------------------------------------------|
E|-----------------------------------------------|

[Pre-Chorus]
e|----------------------------------------------------|
B|----------------------------------------------------|
G|-4--4--4--/11-11--9------4--4--4--/11--11--9--------|
D|-4--4--4--/11-11--9------4--4--4--/11--11--9--------|
A|-2--2--2---/9--9--7------2--2--2---/9---9--7--------|
E|----------------------------------------------------|


************************************

| /  Slide up

************************************
Suggest correction
comments
print report bad tab
8 comments total. Showing first comments. show 1 bad comment
0 reply
degaspiv 631 Feb 09, 2007 08:11 PM

Damn fine job, sir or madam. You forgot a couple of Marr's chords at the end of his riff, but still. Great job. Hope you don't mind, I used these chords in my GuitarPRO version. I'll give ya credit, don't worry... :)

Here ya go:

E||--------9--|----7-------7--9----5--|----3-------3--5-------|
B||--------7--|----7-------7--7----3--|----3-------3--3----7--|
G||--------7--|----7-------7--7----4--|----4-------4--4----6--|
D||-----------|-----------------------|--------------------7--|
A||-----------|-----------------------|-----------------------|
E||-----------|---------7-------------|---------3-------------|



-------------5---------|-------------5------3--|----2-------2--3----3--|
----5--------5------7--|----5--------5------3--|----3-------3--3----5--|
----6--------6------6--|----6--------6------4--|----4-------4--4----4--|
----7--------7------7--|----7--------7---------|-----------------------|
-----------------------|-----------------------|-----------------------|
-------x--5------------|-------x--5------------|---------3-------------|



----3-------3-----------|-------------5---------|-------------5-------9--|
----3-------3h-5p-3--7--|----5--------5------7--|----5--------5-------7--|
----4-------4--------6--|----6--------6------6--|----6--------6-------7--|
---------------------7--|----7--------7------7--|----7--------7----------|
------------------------|-----------------------|------------------------|
---------3--------------|-------x--5------------|-------x--5-------5-----|



----7-------7--9----5--|----3-------3--5-------|-------------5---------|
----7-------7--7----3--|----3-------3--3----7--|----5--------5------7--|
----7-------7--7----4--|----4-------4--4----6--|----6--------6------6--|
-----------------------|--------------------7--|----7--------7------7--|
-----------------------|-----------------------|-----------------------|
---------7-------------|---------3-------------|-------x--5------------|



-------------5------3--|----2-------2--3----3--|----3-------3-----------|
----5--------5------3--|----3-------3--3----5--|----3-------3h-5p-3--7--|
----6--------6------4--|----4-------4--4----4--|----4-------4--------6--|
----7--------7---------|-----------------------|---------------------7--|
-----------------------|-----------------------|------------------------|
-------x--5------------|---------3-------------|---------3--------------|



-------------5---------|-------------5-------9--|----7-------7--9----5--|
----5--------5------7--|----5--------5-------7--|----7-------7--7----3--|
----6--------6------6--|----6--------6-------7--|----7-------7--7----4--|
----7--------7------7--|----7--------7----------|-----------------------|
-----------------------|------------------------|-----------------------|
-------x--5------------|-------x--5-------5-----|---------7-------------|

Again, good job.

+2 reply
a god 125 Jul 15, 2007 08:24 PM

nice this song is very nice

guest
You may want to rate the tab now too:
select rating
Wanna post a correction for this tab? Suggest correction