Oops, an error
Loading. Please wait.

Dramamine tab

version 3
version 3

Whole song

Interactive

5,235 views 105 this week
1 commentread comment
1 2 3 4 5
x 8
add to favorites
×
Save as Personal and add changes to this tab that will be seen only by you. Learn more ›
×
You can save this tab as Personal to edit and correct it or add notes. All changes will be seen only by you. Learn more »
launch autoscroll
font size
0
reset
how to read this tab
guitar tuner
edit
Autoscroll
slow
fast
+/-
esc
set tempo
stop
-----------------------------------------------------------------
Dramamine - Modest Mouse
-----------------------------------------------------------------
Tabbed by: Rhys Gerwin
Email: Jiraoxys7@hotmail.com

Tuning: Standard


Riff1                          Listen closely in the middle of 
e|----------------------------|-------------------------|the song
B|----------------------------|-------------------------|to find 
G|----------------------------|-------------------------|this one
D|---5------4------2------4---|---5-----4-----2---5-5-5-|
A|-7---7--5---5--3---3------5-|-7---7-5---5-3---3-------|
E|----------------------3-----|-------------------------|

Guitar harmonics
e|-19~---------12~---12~---|
B|-------12~---------------|
G|-------------------------|
D|-------------------------|
A|-------------------------|
E|-------------------------|

Riff2
e|--------------------------|
B|--------------------------|
G|-9-7-9/12-9-7-----0-----0-|
D|--------------9-7---7-9---|
A|--------------------------|
E|--------------------------|

Riff3
e|--------------------------|
B|--------------------------|
G|-9-7-9/12-9-7-9-7-0-7-5-0-|
D|--------------------------|
A|--------------------------|
E|--------------------------|

Riff4
e|-----------------|
B|-----------------|
G|-----------------|
D|-9-7-0-7-5-5\9/5-|
A|-----------------|
E|-----------------|

Riff4
e|------------------|
B|------------------|
G|-9-7-9/12-9-7-12~-|
D|------------------|
A|------------------|
E|------------------|

Verse Strum
e|-------|
B|-------|
G|-9-7-9-|
D|-9-7-9-|
A|-7-5-7-|
E|-------|

Verse Strum with variation
e|--------|
B|--------|
G|-9-7-12-|
D|-9-7-12-|
A|-7-5-10-|
E|--------|

Other Strumming part in middle of song
e|------------------------------------------|
B|------------------------------------------|
G|-9--9-9-9-7--7-7-7-12--12-12-12--12-12-12-|
D|-9--9-9-9-7--7-7-7-12--12-12-12--12-12-12-|
A|-7--7-7-7-5--5-5-5-10--10-10-10--10-10-10-|
E|------------------------------------------|

After middle strumming part
e|---------------------|
B|---------------------|
G|-9b(9)-7b(7)-12b(12)-|
D|-9b(9)-7b(7)-12b(12)-|
A|-7b(7)-5b(5)-10b(10)-|
E|---------------------|

Riff5
e|---------------------------------------|
B|---------------------------------------|
G|-12-10-8/7-8-7-------------------------|
D|---------------8-8-6-5-6-8/6-5-5h6p5---|
A|-------------------------------------6-|
E|---------------------------------------|

Riff6
e|-------------------------------------|
B|-------------------------------------|
G|-12-10-8/7-8-7-----------------------|
D|---------------8-8-6-5-6-5-6-8-6/5---|
A|-----------------------------------6-|
E|-------------------------------------|

Riff7
e|-7------7------------------|
B|---10-----10---8-8---8-8---|
G|------9------9-----9-----9-|
D|---------------------------|
A|---------------------------|
E|---------------------------|

Riff8
e|-------------------------|
B|-------------------------|
G|-9-7-0-7-5-0-------------|
D|-------------9-7-0-7-5-0-|
A|-------------------------|
E|-------------------------|

Riff9
e|-----------------------------|
B|-----------------------------|
G|-9-7-0-7-5-0-----------------|
D|-------------9-7-0-7-5-5\9/5-|
A|-----------------------------|
E|-----------------------------|

Riff10 (Plays while the last fill does its thing)
e|---------------|
B|---------------|
G|---------------|
D|---------------|
A|-7-7-7-5-5-5-3-|
E|---------------|

Last fill in the end of the song
e|-------|
B|-------|
G|-------|
D|-5\9/5-|
A|-------|
E|-------|

| \  slide down
| h  hammer-on
| p  pull-off
| ~  vibrato
| +  harmonic
| x  Mute note

Note: The riffs are pretty much in order from when 
      they're played.

            
            
Suggest correction
Creating personal tab
Creating personal tab
You can edit any tab online and save it as your Personal.

You can edit, replace or remove any tab part or add personal notes – all changes will be seen only by you.

Personal tabs can be accessed anytime from any device, even offline.
Learn more »
comments
print report bad tab
1 comment total.
0 reply
the piper 1,413 Aug 25, 2006 02:58 PM

i made this one and it's still badthe

guest
Wanna post a correction for this tab? Suggest correction