Oops, an error
Loading. Please wait.

Dramamine tab

version 4
version 4

Whole song

Interactive

41,318 views 27 this week
18 commentsread comments
1 2 3 4 5
x 15
add to favorites
×
Save as Personal and add changes to this tab that will be seen only by you. Learn more ›
×
You can save this tab as Personal to edit and correct it or add notes. All changes will be seen only by you. Learn more »
launch autoscroll
font size
0
reset
how to read this tab
guitar tuner
edit
Autoscroll
slow
fast
+/-
esc
set tempo
stop
Difficulty
-----------------------------------------------------------------
Dramamine as made famous by Modest Mouse
-----------------------------------------------------------------
Tabbed by: Wes 
Email: Cookie_monster_123_456@hotmail.com
Tuning: Standard


Bass Line 
e|----------------------------| 
B|----------------------------|
G|----------------------------|
D|----5------4------2-----4---| 
A|--7---7--5---5--3---3-----5-|
E|----------------------3-----|

Bass Line twice then the guitar comes in
				
Guitar	
Riff 1		(00:14 - 00:21)			
e|----------------------------------------------|
B|--12b---------------12b--------12--------12---|
G|----------12b-12b-----------12----12--12---12-|
D|------12b---------------12b-------------------| 
A|----------------------------------------------|
E|----------------------------------------------|

Riff 2		(00:22 – 00:29)
e|------------------|
B|--12b-------------|
G|----------12b-12b-|
D|------12b---------|
A|------------------|
E|------------------|x2

Riff 1		(00:30 – 00:37)
e|----------------------------------------------|
B|--12b---------------12b--------12--------12---|
G|----------12b-12b-----------12----12--12---12-|
D|------12b---------------12b-------------------| 
A|----------------------------------------------|
E|----------------------------------------------|

Riff 3 		(00:37 – 00:41)
e|------------------|
B|--12b-------------|
G|----------12b-12b-|
D|------12b---------|
A|------------------|
E|------------------|

Riff 4		(00:42 – 00:56)
e|------------------------------------------------------------------------|
B|------------------------------------------------------------------------|
G|----------12----------------------------------12------------------------|
D|-14-12-14----14-12-------------------14-12-14----14-12-14-12----12-10---|
A|-------------------14-12-10-12-14-10-------------------------10------10-|
E|------------------------------------------------------------------------|x2

Riff 5		(00:56 – 00:59)
e|--------------------------|
B|--------------------------|
G|--------------------------|
D|--------------------------|
A|-14-12----12-10-14/10-----|
E|-------12-----------------|




Riff 4		(1:00 – 1:08)
e|------------------------------------------------------------------------|
B|------------------------------------------------------------------------|
G|----------12----------------------------------12------------------------|
D|-14-12-14----14-12-------------------14-12-14----14-12-14-12----12-10---|
A|-------------------14-12-10-12-14-10-------------------------10------10-|
E|------------------------------------------------------------------------|

Riff 6		(1:09 – 1:15)
e|-----------------------------------------------------------|
B|-----------------------------------------------------------|
G|----------12----------------------------------12-------12~-|
D|-14-12-14----14-12-------------------14-12-14----14-12-----|
A|-------------------14-12-10-12-14-10-----------------------|
E|-----------------------------------------------------------|

Riff 7		(1:16 – 1:48)
e|---------------|
B|---------------|
G|-9-----7-----9-|
D|-9-----7-----9-|
A|-7-----5-----7-|
E|---------------|x7

Riff 4		(1:48 – 2:03)
e|------------------------------------------------------------------------|
B|------------------------------------------------------------------------|
G|----------12----------------------------------12------------------------|
D|-14-12-14----14-12-------------------14-12-14----14-12-14-12----12-10---|
A|-------------------14-12-10-12-14-10-------------------------10------10-|
E|------------------------------------------------------------------------|X2

Riff 5		(2:03 – 2:06)
e|--------------------------|
B|--------------------------|
G|--------------------------|
D|--------------------------|
A|-14-12----12-10-14/10-----|
E|-------12-----------------|

Riff 6		(2:06 – 2:14)
e|-----------------------------------------------------------|
B|-----------------------------------------------------------|
G|----------12----------------------------------12-------12~-|
D|-14-12-14----14-12-------------------14-12-14----14-12-----|
A|-------------------14-12-10-12-14-10-----------------------|
E|-----------------------------------------------------------|

Riff 7		(2:14 – 2:43)
e|---------------|
B|---------------|
G|-9-----7-----9-|
D|-9-----7-----9-|
A|-7-----5-----7-|
E|---------------|x7







Riff 8		(2:43 – 3:19)
e|------------------------------|
B|------------------------------|
G|-9999--7777--1212121212121212-|
D|-9999--7777—-1212121212121212-|
A|-7777--5555--1010101010101010-|
E|------------------------------|X9


Riff 9		(3:19 – 3:33)
e|-----------------------------------------------------|
B|-----------------------------------------------------|
G|-16-14--12-11-12--11-9-------------------------------|
D|--------------------------12-10-9-10--9-10-12--10----|
A|--------------------------------------------------10-|
E|-----------------------------------------------------|X2

Riff 10		(3:35 – 4:00ish)
e|----------------------------|
B|----------------------------|
G|-16-14----16-14----12----12-|
D|-------14-------14----14----|
A|----------------------------|
E|----------------------------|(About 5 times)

Riff 3 		(4:21 – 4:33)
e|------------------|
B|--12b-------------|
G|----------12b-12b-|
D|------12b---------|
A|------------------|
E|------------------|X3

Riff 4		(4:33 – 4:48)
e|------------------------------------------------------------------------|
B|------------------------------------------------------------------------|
G|----------12----------------------------------12------------------------|
D|-14-12-14----14-12-------------------14-12-14----14-12-14-12----12-10---|
A|-------------------14-12-10-12-14-10-------------------------10------10-|
E|------------------------------------------------------------------------|x2

Riff 5		(4:48 – 4:52)
e|--------------------------|
B|--------------------------|
G|--------------------------|
D|--------------------------|
A|-14-12----12-10-14/10-----|
E|-------12-----------------|

Riff 11		(4:53 – 5:00)
e|-------------------------------------|
B|-------------------------------------|
G|-------------------------------------|
D|-14-12----12-10----------------------|
A|-------10-------10-14-12----12-10----|
E|-------------------------12-------12-|X2



Riff 12		(5:00 – 5:04)
e|----------------------------------------|
B|----------------------------------------|
G|----------------------------------------|
D|-14-12----12-10-------------------------|
A|-------10-------10-14-12----12-10-14/10-|
E|-------------------------12-------------|

Riff 13		(5:08 - 5:13)
e|--------------------|
B|--------------------|
G|--------------------|
D|--------------------|
A|-14/10-----10\14/10-|
E|--------------------|

Riff 14		(5:25 – 5:45)
e|--------|
B|-10/14--|	<--(not exactly right its somewhere around that, my
G|--------|	   guitar is tuned poorly)
D|--------|
A|--------|
E|--------|X9

That’s about it.






            
            
Suggest correction
Creating personal tab
Creating personal tab
You can edit any tab online and save it as your Personal.

You can edit, replace or remove any tab part or add personal notes – all changes will be seen only by you.

Personal tabs can be accessed anytime from any device, even offline.
Learn more »
comments
print report bad tab
18 comments total. Showing first comments.
+1 reply
coldfry1 2,158 Dec 02, 2007 09:16 AM

on your last riff the 10/14 its just a fret up for the correction. it's actually 11/15... just otherwise perfect tab...
good job

-2 reply
jocksmock 30 Jan 24, 2008 11:39 AM

Shouldn't it be(?):

Riff 9 (3:19 –
3:33)
e|-----------------------------------------------------|
B|-----------------------------------------------------
|
G|-16-14--12-11-12--11---------------------------------|
D|---------------------12-----12-10-9-10--9-10-12--10--|
A
|--------------------------------------------------10-|
E|-----------------------------------------------------|X2

-1 reply
jocksmock 30 Jan 24, 2008 11:41 AM

Sorry that came out f'ed up

Riff 9 (3:19 –
3:33)
e|---------------------------------------------------|
B|---------------------------------------------------|
G
|16-14--12-11-12--11--------------------------------|
D|--------------------12----12-10-9-10--9-10-12--10--|
A|-------
-----------------------------------------10-|
E|---------------------------------------------------|

guest
Wanna post a correction for this tab? Suggest correction