Oops, an error
Loading. Please wait.

Float On Bass Tab

version 1
version 1

Whole song

Interactive

74,385 views 78 this week
11 commentsread comments
1 2 3 4 5
accurate
x 30
add to favorites
launch autoscroll
font size
0
reset
guitar tuner
Autoscroll
slow
fast
+/-
esc
set tempo
stop
Help us to improve Ultimate-Guitar.com Take our survey!
×
TITLE:FLOAT ON
ARTIST: MODEST MOUSE
TYPE OF TAB:BASS TAB
TABS BY: JOE


[Intro]

G|------------------------------------------|
D|----------8---------8---------------------|
A|-9-9-9-9----8-8-8-8-----------6---------6-|
E|----------------------7-7-7-7---6-6-6-6---|(x1)


[Verse 1]

G|------------------------------------------|
D|----------8---------8---------------------|
A|-9-9-9-9----8-8-8-8-----------6---------6-|
E|----------------------7-7-7-7---6-6-6-6---|(x2)


[Pre-Chorus]

G|------------------------------------------|
D|----------8---------8---------------------|
A|-9-9-9-9----8-8-8-8-----------6---------6-|
E|----------------------7-7-7-7---6-6-6-6---|(x1)


[Chorus]

G|-----------------------------|
D|------8------8---------------|
A|-9~-9---8~-8--------6------6-|
E|---------------7~-7---6~-6---|(x2)


[Verse 2]

G|------------------------------------------|
D|----------8---------8---------------------|
A|-9-9-9-9----8-8-8-8-----------6---------6-|
E|----------------------7-7-7-7---6-6-6-6---|(x3)


[Pre-Chorus]

G|------------------------------------------|
D|----------8---------8---------------------|
A|-9-9-9-9----8-8-8-8-----------6---------6-|
E|----------------------7-7-7-7---6-6-6-6---|(x1)

[Chorus]

G|-----------------------------|
D|------8------8---------------|
A|-9~-9---8~-8--------6------6-|
E|---------------7~-7---6~-6---|(x2)


[Interlude]

G|------------------------------------------|
D|----------8---------8---------------------|
A|-9-9-9-9----8-8-8-8-----------6---------6-|
E|----------------------7-7-7-7---6-6-6-6---|(x2)


[Outro]

G|------------------------------------------|
D|----------8---------8---------------------|
A|-9-9-9-9----8-8-8-8-----------6---------6-|
E|----------------------7-7-7-7---6-6-6-6---|(x4)

G|---------------------------------------------|
D|----------8---------8------------------------|
A|-9-9-9-9----8-8-8-8-----------6---------6----|
E|----------------------7-7-7-7---6-6-6-6---5~-|(x1)



************************************

| ~  Vibrato

************************************
Suggest correction
What's this?
You can suggest a correction to this tab. Community and Mods will review your correction and vote to approve or reject it.
comments
print report bad tab
11 comments total. Showing first comments. show 1 bad comment
0 reply
punkrockdude2 410 wrote on June 20 2004, 12:00 am

freakin awsome

+10 reply
beastbass101 14 wrote on November 24 2004, 12:00 am

Sorry that's wrong it goes:
G|-----------------------------------------------|
D|-----------------------------------------------|
A|9-9-9-9-h-11--8-8-8-8/6------------------------|
E|-----------------------7-7-7-7-h-9--6-6-6-6-h-9|
what i call a fill(happens twice in this song) it's a transition between two different sections (in this song/the chorus and verse) of a song goes like:
G|------------------------------------|
D|------------------------------------|
A|9~--9-h-11--8~--8/6--------------6-8|
E|-------------------7~--7-h-9--6-9---|
And the chorus is:
G|----------------------------------------|
D|----------------------------------------|
A|9~--9-h-11--8~--8/6---------------------|
E|--------------------7~--7-h-9--6~--6-h-9|
Nice try it's just that i've heard this song a million times and listened to a bass speaker during that song and that's how it is. You got most of it though.

guest
You may want to rate the tab now too:
select rating
Please do not post tabs as comments. Select "correction" instead!