Oops, an error
Loading. Please wait.
We have an official Float On tab made by UG professional guitarists. Check out the tab »
×

Float On bass

version 2
version 2

Whole song

Interactive

29,934 views 39 this week
1 commentread comment
1 2 3 4 5
x 44
add to favorites
×
Save as Personal and add changes to this tab that will be seen only by you. Learn more ›
×
You can save this tab as Personal to edit and correct it or add notes. All changes will be seen only by you. Learn more »
launch autoscroll
font size
0
reset
guitar tuner
backing track
0:00
0:00
edit
Autoscroll
slow
fast
+/-
esc
set tempo
stop
Author
Difficulty
(The beginning guitar lasts for 15 seconds before the bass starts into the intro.)

G|-----------------------------------------------------|
D|-----------------------------------------------------|
A|-9--9--9--9-11-8--8--8--8-6--------------------------|  (x4)
E|----------------------------7--7--7--7-9-6--6--6--6-9|

G|-----------------------------------------------------|
D|-----------------------------------------------------|
A|-9-------9-11-8----------8-6-7--------------------9--|  
E|-------------------------------------7-9-6----6-9----|

G|--------------------------------------------------|
D|--------------------------------------------------|
A|-9-------9-11-8------------8-6-7-------------6-8-9|  
E|-------------------------------------7-9-6-9------|

G|-----------------------------------------------------|
D|-----------------------------------------------------|
A|-9--9--9--9-11-8--8--8--8-6--------------------------|  (x4)
E|----------------------------7--7--7--7-9-6--6--6--6-9|

G|-----------------------------------------------------|
D|-----------------------------------------------------|
A|-9-------9-11-8----------8-6-7--------------------9--|  
E|-------------------------------------7-9-6----6-9----|

G|--------------------------------------------------|
D|--------------------------------------------------|
A|-9-------9-11-8------------8-6-7-------------6-8-9|  
E|-------------------------------------7-9-6-9------|

G|-----------------------------------------------------|
D|-----------------------------------------------------|
A|-9--9--9--9-11-8--8--8--8-6--------------------------|  (x3)
E|----------------------------7--7--7--7-9-6--6--6--6-9|

(Hold last note for about 1.5 seconds then cut and pause for the re-entry which takes 
9 seconds, then come back in with)

G|-----------------------------------------------------|
D|-----------------------------------------------------|
A|-9--9--9--9-11-8--8--8--8-6--------------------------|  (x4)
E|----------------------------7--7--7--7-9-6--6--6--6-9|
Suggest correction
Creating personal tab
Creating personal tab
You can edit any tab online and save it as your Personal.

You can edit, replace or remove any tab part or add personal notes – all changes will be seen only by you.

Personal tabs can be accessed anytime from any device, even offline.
Learn more »
comments
print report bad tab
1 comment total.
+1 reply
NeededLlama 31 Mar 01, 2013 03:14 PM

This sounds right, but you are definitely missing some slides.
For the verse riff, try:
G|-----------------------------------------------------|
D|-----------------------------------------------------|
A|-9--9--9--9-11-8--8--8--8/6--------------------------| X4
E|----------------------------7--7--7--7-9-6--6--6--6/9|
and for the chorus I believe it is:
G|-----------------------------------------------------|
D|-----------------------------------------------------|
A|-9-------9/11-8----------8/6-7--------------------9--| X1
E|-------------------------------------7-9/6----6-9----|

G|-----------------------------------------------|
D|-----------------------------------------------|
A|------9/11-8------------8/6-7-------------6-8-9| X1
E|----------------------------------7-9/6-9------|

This is the better tab, though, no others include the fill at the end of the chorus.

guest
You may want to rate the tab now too:
select rating
Wanna post a correction for this tab? Suggest correction