Oops, an error
Loading. Please wait.
We have an official Float On tab made by UG professional guitarists. Check out the tab »
×
7,161 views 3 this week
2 commentsread comments
1 2 3 4 5
1 last vote to show rating
add to favorites
×
Save as Personal and add changes to this tab that will be seen only by you. Learn more ›
×
You can save this tab as Personal to edit and correct it or add notes. All changes will be seen only by you. Learn more »
launch autoscroll
font size
0
reset
how to read this tab
guitar tuner
backing track
0:00
0:00
edit
Autoscroll
slow
fast
+/-
esc
set tempo
stop
Author
Difficulty
-------------------------------------------------------------------------------
                             Float on – Modest Mouse
-------------------------------------------------------------------------------
Tabbed by: Utopiaoflove
Email: Sparty_fan99@yahoo.com

Tuning: Standard EADGBe
GUITAR 1:
Struming D DU DDDUDUDU D  D  DU DDDUDUDU D  D  DU DDDUDUDU D  D D DU DUDUDUD
e|-------6-66-66666666-6--6--66-66666666-6--6--66-66666666-6--6-6-66-6666666-|
B|-------7-77-77777777 7\66--66-66666666-6/77--77-77777777 7\66-6-66-6666666-|
G|---------------------------------------------------------------------------|
D|---------------------------------------------------------------------------|
A|---------------------------------------------------------------------------|
E|---------------------------------------------------------------------------|

GUITAR 1:
Struming D DU DDDUDUDU D  D  DU DDDUDUDU D  D  DU DDDUDUDU D  D D DU DUDUDUD
e|------/6-66-66666666-6--6--66-66666666-6--6--66-66666666-6--6-6-66-6666666-|
B|------/7-77-77777777 7\66--66-66666666-6/77--77-77777777 7\66-6-66-6666666-|
D|---------------------------------------------------------------------------|
A|---------------------------------------------------------------------------|
E|---------------------------------------------------------------------------|
GUITAR 2:
Struming D D  U  D  UDUDU D D  U  D  UDUDU D D  U  D  UDUDU D D D D D DU D U 
e|---------6--9--6---6666---6--9--6---6666---6--9--6---6666-6-6-6-6-6-6------|
B|-------7----------9-----6----------9----------------9----------------9-7-7-|
G|-----------------------------------------8---------------------------------|
D|---------------------------------------------------------------------------|
A|---------------------------------------------------------------------------|
E|---------------------------------------------------------------------------|

GUITAR 1:
Struming D DU DDDUDUDU D  D  DU DDDUDUDU D  D  DU DDDUDUDU D  D D DU DUDUDUD
e|------/6-66-66666666-6--6--66-66666666-6--6--66-66666666-6--6-6-66-6666666-|
B|------/7-77-77777777 7\66--66-66666666-6/77--77-77777777 7\66-6-66-6666666-|
D|---------------------------------------------------------------------------|
A|---------------------------------------------------------------------------|
E|---------------------------------------------------------------------------|

GUITAR 1:
Struming D DU DDDUDUDU D  D  DU DDDUDUDU D  D  DU DDDUDUDU D  D D DU DUDUDUD
e|------/6-66-66666666-6--6--66-66666666-6--6--66-66666666-6--6-6-66-6666666-|
B|------/7-77-77777777 7\66--66-66666666-6/77--77-77777777 7\66-6-66-6666666-|
D|---------------------------------------------------------------------------|
A|---------------------------------------------------------------------------|
E|---------------------------------------------------------------------------|

GUITAR 1:
Struming D DU DDDUDUDU D  D  DU DDDUDUDU D  D  DU DDDUDUDU D  D D DU DUDUDUD
e|------/6-66-66666666-6--6--66-66666666-6--6--66-66666666-6--6-6-66-6666666-|
B|------/7-77-77777777 7\66--66-66666666-6/77--77-77777777 7\66-6-66-6666666-|
D|---------------------------------------------------------------------------|
A|---------------------------------------------------------------------------|
E|---------------------------------------------------------------------------|
GUITAR 2:
Struming D D  U  D  UDUDU D D  U  D  UDUDU D D  U  D  UDUDU D D D D D DU D U 
e|---------6--9--6---6666---6--9--6---6666---6--9--6---6666-6-6-6-6-6-6------|
B|-------7----------9-----6----------9----------------9----------------9-7-7-|
G|-----------------------------------------8---------------------------------|
D|---------------------------------------------------------------------------|
A|---------------------------------------------------------------------------|
E|---------------------------------------------------------------------------|

GUITAR 2:
Strumming DD  U  DUD  U  DUD  U  DUD  U  DUD  U  DUD  U  DUD  U  DUD  U D 
e|---------6--9--6-6--9--6-6--9--6-6--9--6-6--9--6-6--9--6-6--9--6-6—-9—6----|
B|--------7-------7-------6-------6------------------------------------------|
G|----------------------------------------8-------8------ 6-------6----------|
D|---------------------------------------------------------------------------|
A|---------------------------------------------------------------------------|
E|---------------------------------------------------------------------------|

GUITAR 2:
Strumming DD  U  DUD  U  DUD  U  DUD  U  DUD  U  DUD  U  DUD  U  DUD  U D 
e|---------6--9--6-6--9--6-6--9--6-6--9--6-6--9--6-6--9--6-6--9--6-6—-9—6----|
B|--------7-------7-------6-------6------------------------------------------|
G|----------------------------------------8-------8------ 6-------6----------|
D|---------------------------------------------------------------------------|
A|---------------------------------------------------------------------------|
E|---------------------------------------------------------------------------|

GUITAR 1:
Struming D DU DDDUDUDU D  D  DU DDDUDUDU D  D  DU DDDUDUDU D  D D DU DUDUDUD
e|------/6-66-66666666-6--6--66-66666666-6--6--66-66666666-6--6-6-66-6666666-|
B|------/7-77-77777777 7\66--66-66666666-6/77--77-77777777 7\66-6-66-6666666-|
D|---------------------------------------------------------------------------|
A|---------------------------------------------------------------------------|
E|---------------------------------------------------------------------------|

GUITAR 1:
Struming D DU DDDUDUDU D  D  DU DDDUDUDU D  D  DU DDDUDUDU D  D D DU DUDUDUD
e|------/6-66-66666666-6--6--66-66666666-6--6--66-66666666-6--6-6-66-6666666-|
B|------/7-77-77777777 7\66--66-66666666-6/77--77-77777777 7\66-6-66-6666666-|
D|---------------------------------------------------------------------------|
A|---------------------------------------------------------------------------|
E|---------------------------------------------------------------------------|

GUITAR 1:
Struming D DU DDDUDUDU D  D  DU DDDUDUDU D  D  DU DDDUDUDU D  D D DU DUDUDUD
e|------/6-66-66666666-6--6--66-66666666-6--6--66-66666666-6--6-6-66-6666666-|
B|------/7-77-77777777 7\66--66-66666666-6/77--77-77777777 7\66-6-66-6666666-|
D|---------------------------------------------------------------------------|
A|---------------------------------------------------------------------------|
E|---------------------------------------------------------------------------|

GUITAR 1:
Struming D DU DDDUDUDU D  D  DU DDDUDUDU D  D  DU DDDUDUDU D  D D DU DUDUDUD
e|------/6-66-66666666-6--6--66-66666666-6--6--66-66666666-6--6-6-66-6666666-|
B|------/7-77-77777777 7\66--66-66666666-6/77--77-77777777 7\66-6-66-6666666-|
D|---------------------------------------------------------------------------|
A|---------------------------------------------------------------------------|
E|---------------------------------------------------------------------------|
GUITAR 2:
Struming D D  U  D  UDUDU D D  U  D  UDUDU D D  U  D  UDUDU D D D D D DU D U 
e|---------6--9--6---6666---6--9--6---6666---6--9--6---6666-6-6-6-6-6-6------|
B|-------7----------9-----6----------9----------------9----------------9-7-7-|
G|-----------------------------------------8---------------------------------|
D|---------------------------------------------------------------------------|
A|---------------------------------------------------------------------------|
E|---------------------------------------------------------------------------|






GUITAR 2:
Strumming DD  U  DUD  U  DUD  U  DUD  U  DUD  U  DUD  U  DUD  U  DUD  U D 
e|---------6--9--6-6--9--6-6--9--6-6--9--6-6--9--6-6--9--6-6--9--6-6—-9—6----|
B|--------7-------7-------6-------6------------------------------------------|
G|----------------------------------------8-------8------ 6-------6----------|
D|---------------------------------------------------------------------------|
A|---------------------------------------------------------------------------|
E|---------------------------------------------------------------------------|

GUITAR 2:
Strumming DD  U  DUD  U  DUD  U  DUD  U  DUD  U  DUD  U  DUD  U  DUD  U D 
e|---------6--9--6-6--9--6-6--9--6-6--9--6-6--9--6-6--9--6-6--9--6-6—-9—6----|
B|--------7-------7-------6-------6------------------------------------------|
G|----------------------------------------8-------8------ 6-------6----------|
D|---------------------------------------------------------------------------|
A|---------------------------------------------------------------------------|
E|---------------------------------------------------------------------------|

GUITAR 1:
Struming D DU DDDUDUDU D  D  DU DDDUDUDU D  D  DU DDDUDUDU D  D D DU DUDUDUD
e|------/6-66-66666666-6--6--66-66666666-6--6--66-66666666-6--6-6-66-6666666-|
B|------/7-77-77777777 7\66--66-66666666-6/77--77-77777777 7\66-6-66-6666666-|
D|---------------------------------------------------------------------------|
A|---------------------------------------------------------------------------|
E|---------------------------------------------------------------------------|
GUITAR 2:
Struming D D  U  D  UDUDU D D  U  D  UDUDU D D  U  D  UDUDU D D D D D DU D U 
e|---------6--9--6---6666---6--9--6---6666---6--9--6---6666-6-6-6-6-6-6------|
B|-------7----------9-----6----------9----------------9----------------9-7-7-|
G|-----------------------------------------8---------------------------------|
D|---------------------------------------------------------------------------|
A|---------------------------------------------------------------------------|
E|---------------------------------------------------------------------------|

GUITAR 1:
Struming D DU DDDUDUDU D  D  DU DDDUDUDU D  D  DU DDDUDUDU D  D D DU DUDUDUD
e|------/6-66-66666666-6--6--66-66666666-6--6--66-66666666-6--6-6-66-6666666-|
B|------/7-77-77777777 7\66--66-66666666-6/77--77-77777777 7\66-6-66-6666666-|
D|---------------------------------------------------------------------------|
A|---------------------------------------------------------------------------|
E|---------------------------------------------------------------------------|
GUITAR 2:
Struming D D  U  D  UDUDU D D  U  D  UDUDU D D  U  D  UDUDU D D D D D DU D U 
e|---------6--9--6---6666---6--9--6---6666---6--9--6---6666-6-6-6-6-6-6------|
B|-------7----------9-----6----------9----------------9----------------9-7-7-|
G|-----------------------------------------8---------------------------------|
D|---------------------------------------------------------------------------|
A|---------------------------------------------------------------------------|
E|---------------------------------------------------------------------------|

GUITAR 1:
Struming  D  D D  D   D D  U DUD D  U D U D U  D UDD  U D  U D  U D U
e|---------6--6—-6--6--------------------------------------------------------|
B|---------7--6--------------------------------------------------------------|
G|---------------8--6------3--6--3---3--6--3---3--6--3---3--6--3----3--6--3--|
D|---------------------*-4--------44---------3---------43---------6---------6|
A|-Gap in song at star/|\----------------------------------------------------|
E|-------------------//|\\---------------------------------------------------|

GUITAR 1:
Struming D DU DDDUDUDU D  D  DU DDDUDUDU D  D  DU DDDUDUDU D  D D DU DUDUDUD
e|------/6-66-66666666-6--6--66-66666666-6--6--66-66666666-6--6-6-66-6666666-|
B|------/7-77-77777777 7\66--66-66666666-6/77--77-77777777 7\66-6-66-6666666-|
D|---------------------------------------------------------------------------|
A|---------------------------------------------------------------------------|
E|---------------------------------------------------------------------------|
GUITAR 2:
Struming D D  U  D  UDUDU D D  U  D  UDUDU D D  U  D  UDUDU D D D D D DU D U 
e|---------6--9--6---6666---6--9--6---6666---6--9--6---6666-6-6-6-6-6-6------|
B|-------7----------9-----6----------9----------------9----------------9-7-7-|
G|-----------------------------------------8---------------------------------|
D|---------------------------------------------------------------------------|
A|---------------------------------------------------------------------------|
E|---------------------------------------------------------------------------|

GUITAR 1:
Struming D DU DDDUDUDU D  D  DU DDDUDUDU D  D  DU DDDUDUDU D  D D DU DUDUDUD
e|------/6-66-66666666-6--6--66-66666666-6--6--66-66666666-6--6-6-66-6666666-|
B|------/7-77-77777777 7\66--66-66666666-6/77--77-77777777 7\66-6-66-6666666-|
D|---------------------------------------------------------------------------|
A|---------------------------------------------------------------------------|
E|---------------------------------------------------------------------------|
GUITAR 2:
Struming D D  U  D  UDUDU D D  U  D  UDUDU D D  U  D  UDUDU D D D D D DU D U 
e|---------6--9--6---6666---6--9--6---6666---6--9--6---6666-6-6-6-6-6-6------|
B|-------7----------9-----6----------9----------------9----------------9-7-7-|
G|-----------------------------------------8---------------------------------|
D|---------------------------------------------------------------------------|
A|---------------------------------------------------------------------------|
E|---------------------------------------------------------------------------|

| /  slide up
| \  slide down
| h  hammer-on
| p  pull-off
| ~  vibrato
| +  harmonic
| x  Mute note
===============================================================================


            
            
Suggest correction
Creating personal tab
Creating personal tab
You can edit any tab online and save it as your Personal.

You can edit, replace or remove any tab part or add personal notes – all changes will be seen only by you.

Personal tabs can be accessed anytime from any device, even offline.
Learn more »
Give kudos to tab author, rate the tab!
1 2 3 4 5
comments
print report bad tab
2 comments total.
0 reply
bivens 10 Feb 06, 2009 05:24 PM

we already have too many float on tabs!!! and this isnt really that good. keep tryin

0 reply
Aquamenti 50 Sep 18, 2010 10:18 AM

No, don't keep trying, we already have a decent tab for it.

guest
You may want to rate the tab now too:
select rating
Wanna post a correction for this tab? Suggest correction