Oops, an error
Loading. Please wait.

Florida bass

version 1
version 1

Whole song

Interactive

3,477 views 3 this week
2 commentsread comments
1 2 3 4 5
x 4
add to favorites
×
Save as Personal and add changes to this tab that will be seen only by you. Learn more ›
×
You can save this tab as Personal to edit and correct it or add notes. All changes will be seen only by you. Learn more »
launch autoscroll
font size
0
reset
guitar tuner
edit
Autoscroll
slow
fast
+/-
esc
set tempo
stop
Author
Difficulty
Florida, Modest Mouse
Tabbed by: Sam Hughes.
Standard Tuning
* - let ring
/ - slide
p - pull off
h - hammeron


Verse
G|----------------------7-----------------------------------------|
D|-------------------7----7---------------------------------------|
A|-3-2-00--2-------5--------5-3-2*--------------------------------|
E|-----------5-33-------------------------------------------------|

Final verse of each section goes like this:
G|----------------------7-7----54---------------------------------|
D|-------------------7-----7------5-------------------------------|
A|-3-2-00--2-------5----------------------------------------------|
E|-----------5-33-------------------------------------------------|


Chorus
G|-------54-------------------------------------------------------|
D|---------5-555555-------------45*-------------------------------|
A|-3-3-3---------------5-5-5--57----------------------------------|
E|------------------35-------5------------------------------------|


G|-------4h5p4--4-------------------------------------------------|
D|------------5---5-5--------------45*----------------------------|
A|-3-3-3-----------------5-5-5--57--------------------------------|
E|--------------------35-------5----------------------------------|



Brief Interlude
G|-9---------12---------------------------------------------------|
D|---10-9-12------------------------------------------------------|
A|----------------------------------------------------------------|
E|----------------------------------------------------------------|
even as I left Florda....


Middle8
G|-9---------12-------------12--9*--------------------------------| 
D|---10-9-12--------12*-------12----------------------------------| 
A|----------------------------------------------------------------| 
E|----------------------------------------------------------------| 
                                                                 
G|-9--------------------------------------------------------------| 
D|---10-9-7---------------5---------------------------------------| 
A|----------10*------5*----5/7------------------------------------| 
E|----------------------------------------------------------------| 

G|-9---------12-------------12--9*--------------------------------| 
D|---10-9-12--------12*-------12----------------------------------| 
A|----------------------------------------------------------------| 
E|----------------------------------------------------------------| 


Drum Section, instrumental
G|--------------------------------|-------------------------------|
D|--------------------------------|-------------------------------|
A|-7-----------2-3-5-3-2-----2-3-5|-------------------------------|
E|---8-7-5-3-5-----------5-3------|-x2----------------------------|
After this is played twice, the bass stops.
This is fairly obscure, i'm not sure if it's 100% correct, but it sounds fine to 
play along with it. Comment if you think it is played differently.

Outro, before bassless ending. 
G|---------------------------------------------------------------|
D|---------------------------------------------------------------|
A|-/7-0-000000-/7-0-000000-/7-0-000000---------------------------|
E|------------------------------------3333-----------------------|


And that's it, great song. If you don't agree, please comment and i'll have a  
play and see if I can improve on this. I think it's pretty close though. 

Thanks, 
Ham
st-hughes@hotmail.com

            
            
Suggest correction
Creating personal tab
Creating personal tab
You can edit any tab online and save it as your Personal.

You can edit, replace or remove any tab part or add personal notes – all changes will be seen only by you.

Personal tabs can be accessed anytime from any device, even offline.
Learn more »
comments
print report bad tab
2 comments total.
0 reply
sixsixone__ 93 Nov 19, 2009 10:46 AM

nicely done. great song

0 reply
marcelaguiar 629 Nov 26, 2010 01:09 PM

Im having a hard time hearing the bass in this song =|

Great song nevertheless

guest
You may want to rate the tab now too:
select rating
Wanna post a correction for this tab? Suggest correction