Oops, an error
Loading. Please wait.

Head South Tab

version 3
version 3

Whole song

Interactive

1,040 views 1 this week
no commentswrite comment
1 2 3 4 5
3 more votes to show rating
add to favorites
launch autoscroll
font size
0
reset
how to read this tab
guitar tuner
Autoscroll
slow
fast
+/-
esc
set tempo
stop
Help us to improve Ultimate-Guitar.com Take our survey!
×
These are the three main parts to the song (not including the minor little riffs in the 
and end of the song)  Figure out exact timing for yourself.  Enjoy.


e|--7--------3--------3-------------------------|
B|--8--------4--------3-------------------------|
G|--9--------5--------4-------------------------|
D|--9--------5--------5-------------------------|
A|--7--------3--------5-------------------------|
E|--7--------4--------3-------------------------| x4
    A..surf...rock....bah-hand...from...the land of plen-teeeey. (Bend guitar neck when played)

e|-------------------------------------------|
B|-------------------------------------------|
G|-------------------------------------------|
D|---5-0----1-0------------------------------|
A|--7---7-/3---3---2-------------------------|
E|---------------3---------------------------|
    Stuck by being ashamed of your old space....x7

e|---x-x-/x/x--/x--x--x-/x-----x--x--x-/-x--/x-/--x--x--x-/x---x-x-x-x-x-|
B|---x-x-/x/x--/x--x--x-/x-----x--x--x-/-x--/x-/--x--x--x-/x---x-x-x-x-x-|
G|---9-9-/11/12/11-11-11/12----x--x--x-/-x--/x-/--x--x--x-/x---4-4-4-4-4-|
D|---x-x-/x/x--/x--x--x-/x-----10-10-10/-12-/13/--12-12-12/13--x-x-x-x-x-|
A|---7-7-/9/10-/9--9--9-/9-----x--x--x-/-x--/x-/--x--x--x-/x---3-3-3-3-3-|
E|---x-x-/x/-x--/x--x-x-/x-----8--8--8-/-10-/11/--10-10-10/10--x-x-x-x-x-|

Head south! Head south! (x's are muted) (frets of muted chords are realtive to the 
numbed fret in the chord itself {the one that your finger would be laid across}

e|-------------------------------------------|
B|-------------------------------------------|
G|----3--------------------------------------|
D|-0-0---------------------------------------|
A|--2----------------------------------------|
E|-------------------------------------------| x figure it out
 You slide to this after all of the muted chords when he is yelling "head south!", then 
the chords again however many times.
Suggest correction
Give kudos to tab author, rate the tab!
1 2 3 4 5
comments
print report bad tab
guest
You may want to rate the tab now too:
select rating
Wanna post a correction for this tab? Suggest correction