Oops, an error
Loading. Please wait.

Head South tab

version 4
version 4

Whole song

Interactive

79 views 1 this week
no commentswrite comment
1 2 3 4 5
3 more votes to show rating
add to favorites
×
Save as Personal and add changes to this tab that will be seen only by you. Learn more ›
×
You can save this tab as Personal to edit and correct it or add notes. All changes will be seen only by you. Learn more »
launch autoscroll
font size
0
reset
how to read this tab
guitar tuner
edit
Autoscroll
slow
fast
+/-
esc
set tempo
stop
Author
Difficulty
Head South (Isaac and Steve's Parts)
Modest Mouse
Tabbed by: Isaac
E-mail: talleyi21@gmail.com


None of the tabs out there for this song are even close to correct and all of them ignore 
Steve Wold's guitar part. Because of this, I've decided to tab out each note in both parts.


[Intro] "A surf...rock...band..."

(Only Isaac Brock here. You pretty much need a whammy bar for this part. If your guitar
has a bolt on neck then you can bow the neck back and forth by either pushing forward on
the headstock and body or back on both to sort of simulate the effect).

                (let g and b strings ring through last chord)
e|--------------------------------------------------------|
B|----0N/\N~--------0N/\N~-------(0)N~~-------------------|
G|----0N/\N~--------0N/\N~-------(0)N~~-------------------|  (x4)
D|----x-------------x-------------x-----------------------|
A|----7N/\N~--------3N/\N~--------2N~~--------------------|
E|--------------------------------3N~~--------------------|


[Verse 1A]

"Stop being ashamed of your old space..."

Isaac Brock:

e|------------------------------------|
B|------------------------------------|
G|------------------------------------|  (x4)
D|-----5--0--------1--0---------------|
A|--7--------7--3--------3-----2------|
E|--------------------------3---------|

Steve Wold: (only play on 2nd and 4th repetitions of Isaac's main riff)

e|-------------------------------------------------|
B|-------------------------------------------------|
G|--+7-+7-+7-+7--7--4--4--4--2--4------------------| (x2)
D|----------------------------------0-h4--4--2--2--|
A|-------------------------------------------------|
E|-------------------------------------------------|


[Verse 1B] 

"Oh what a drag..."

Isaac Brock:

e|--------------------------------------------------|
B|--------------------------------------------------|
G|--------------------------------------------------|
D|-----5p0-5p0-------1--0-------------7b---7--5--4--|
A|--7----------7--3--------3-----2------------------|
E|----------------------------3---------------------|
                                                     
e|-------------------------------------------------|
B|-------------------------------------------------|
G|-------------------------------------------------|
D|-----5p0-5p0-------1--0-------------4b---5--7----|
A|--7----------7--3--------3-----2-----------------|
E|----------------------------3--------------------|

e|--------------------------------------------------|
B|--------------------------------------------------|
G|--------------------------------------------------|
D|-----5p0-5p0-------1--0-------------7b---7--5--4--|
A|--7----------7--3--------3-----2------------------|
E|----------------------------3---------------------|

Steve Wold: (Steve occasionally plays an open b string here)

e|--------------------------------------------------|
B|-------------0-----------0------------------------|
G|-----4p0-4p0--------------------------------------|
D|-------------------1--0-------------7b---7--5--4--|
A|--7-------------3--------------2------------------|
E|----------------------------3---------------------|
                                                     
e|-------------------------------------------------|
B|-------------------------------------------------|
G|--+7-+7-+7-+7--7--4--4--4--2--4------------------| 
D|----------------------------------0-h4--4--2--2--|
A|-------------------------------------------------|
E|-------------------------------------------------|

e|--------------------------------------------------|
B|-------------0-----------0------------------------|
G|-----4p0-4p0--------------------------------------|
D|-------------------1--0-------------7b---7--5--4--|
A|--7-------------3--------------2------------------|
E|----------------------------3---------------------|


[Chorus] 

"Head south, head south..."

Both guitars play: (there is some variation here throughout)
                                                        
                                             (let open strings ring here)
e|-------------------------------------------------|
B|--8--8--7--8----7--8--0-0-0--0--3--4----3--4--0--|
G|--0--0--0--0----0--0--0-0-0--0--0--3----0--3--0--|
D|--x--x--x--x----x--x--x-x-x--x--x--x----x--x--0--|
A|--7--7--7--7----7--7--x-x-3--3--3--3----3--3--x--|
E|-------------------------------------------------|

Then just Isaac:                                      (x4)

e|--------------------------------------------------|
B|-(0)----------------------------------------------|
G|-(0)----------------------------------------------|
D|-(0)----------------------------------------------|
A|--------------------------------------------------|
E|--3~~3~~3~~3~~3~~3~~3~~3~~3~~3~~3~~3~~3~~3~~3~~3--|


[Verse 2A]

"Struck by being ashamed of your old space..."

Isaac Brock:

e|------------------------------------|
B|------------------------------------|
G|------------------------------------|  (x4)
D|-----5--0--------1--0---------------|
A|--7--------7--3--------3-----2------|
E|--------------------------3---------|

Steve Wold:

(during the second repetition of Isaac's riff)
e|-----------------------------------------------|
B|-----------------------------------------------|
G|--7--7--7--7--7--4--4--4--2--------4-----------|
D|--------------------------------0-h4--4--2--2--|
A|-----------------------------------------------|
E|-----------------------------------------------|

(during the fourth repetition of Isaac's riff)
e|------------------------------------------|
B|------------------------------------------|
G|--7--7--7--7--7--4--4--4--2--4------------|
D|------------------------------------------|
A|------------------------------------------|
E|------------------------------------------|


[Verse 2B] 

"Then you sold out for the shade of the palm tree scene..."

Isaac Brock:

e|----------------------------------------------------|
B|----------------------------------------------------|
G|----------------------------------------------------|
D|-----5p0-5p0-------1p0-1p0------------7b---7--5--4--|
A|--7----------7--3----------3-----2------------------|
E|------------------------------3---------------------|
                                                     
e|---------------------------------------------------|
B|---------------------------------------------------|
G|---------------------------------------------------|
D|-----5p0-5p0-------1p0-1p0------------4b---5--7----|
A|--7----------7--3----------3-----2-----------------|
E|------------------------------3--------------------|

e|----------------------------------------------------|
B|----------------------------------------------------|
G|----------------------------------------------------|
D|-----5p0-5p0-------1p0-1p0------------7b---7--5--4--|
A|--7----------7--3----------3-----2------------------|
E|------------------------------3---------------------|

Steve Wold: (Steve occasionally plays an open b string here)

e|----------------------------------------------------|
B|----------------------------------------------------|
G|----------------------------------------------------|
D|-----5p0-5p0-------1p0-1p0------------7b---7--5--4--|
A|--7----------7--3----------3-----2------------------|
E|------------------------------3---------------------|
                                                     
e|-------------------------------------------|
B|-------------------------------------------|
G|--7--7--7--7--7--4--4--4--2-------4--------| 
D|-------------------------------------------|
A|-------------------------------------------|
E|-------------------------------------------|

e|----------------------------------------------------|
B|-------------0-------------0------------------------|
G|-----4p0 4p0----------------------------------------|
D|-------------------1p0-1p0------------7b---7--5--4--|
A|--7-------------3----------------2------------------|
E|------------------------------3---------------------|


[Chorus 2]

Both Guitars: (slightly more intense/percussive than before)

                                             (let open strings ring here)
e|---------------------------------------------------|
B|--8--8--7--8-x-x-7--8--0-0-0--0--3--4-0-0-3--4--0--|
G|--0--0--0--0-x-x-0--0--0-0-0--0--0--3-0-0-0--3--0--|
D|--x--x--x--x-x-x-x--x--x-x-x--x--x--x-x-x-x--x--0--|
A|--7--7--7--7-----7--7--x-x-3--3--3--3-----3--3--x--|
E|---------------------------------------------------|

Then just Isaac:                                      (x4)

e|--------------------------------------------------|
B|-(0)----------------------------------------------|
G|-(0)----------------------------------------------|
D|-(0)----------------------------------------------|
A|--------------------------------------------------|
E|--3~~3~~3~~3~~3~~3~~3~~3~~3~~3~~3~~3~~3~~3~~3~~3--|


[Outro Jam]

I can hear some quiet texture from Steve here, but this is pretty much all Isaac

e|-----------------------------------------------------------|
B|--7--7-7-7--7-7--7-7--7-7-0-0-3--3-3-3--3-3--3-3--3-x-x(0)-|
G|--x--x-x-x--x-x--x-x--x-x-0-0-0--0-0-0--0-0--0-0--0-x-2-0--|
D|--9--9-9-9--9-9--9-9--9-9-x-x-x--x-x-x--x-x--x-x--x-x-x(0)-|
A|--x--x-x-x--x-x--x-x--x-x-x-x-3--3-3-3--3-3--3-3--3-x-x-x--|
E|-----------------------------------------------------------|


e|--3--3-3-3--3-3--3-3--3-3-3-3-3--3-3-3--3-3--3-3--3-3-x-x-|
B|--3--3-3-3--3-3--3-3--3-3-3-3-3--3-3-3--3-3--3-3--3-3-0-0-|
G|--0--0-0-0--0-0--0-0--0-0-0-0-0--0-0-0--0-0--0-0--0-0-0-0-|
D|--2--2-2-2--2-2--2-2--2-2-2-2-2--2-2-2--2-2--2-2--2-2-x-x-|
A|--x--x-x-x--x-x--x-x--x-x-x-x-x--x-x-x--x-x--x-x--x-x-x-x-|
E|----------------------------------------------------------|


e|----------------------------------------------------------|
B|--7--7-7-7--7-7--7-7--7-7-0-0-3--3-3-3--3-3--3-3--3-3-0-0-|
G|--x--x-x-x--x-x--x-x--x-x-0-0-0--0-0-0--0-0--0-0--0-0-0-0-|
D|--9--9-9-9--9-9--9-9--9-9-x-x-x--x-x-x--x-x--x-x--x-x-x-x-|
A|--x--x-x-x--x-x--x-x--x-x-x-x-3--3-3-3--3-3--3-3--3-3-x-x-|
E|----------------------------------------------------------|


e|-----------------------------------------------------------|
B|--3--3-3-3--3-3--3-3--3-3-3-3-3--3-3-3--3-3--3-3--3-x-15-x-|
G|--0--0-0-0--0-0--0-0--0-0-0-0-0--0-0-0--0-0--0-0--0-x-x--x-|
D|--2--2-2-2--2-2--2-2--2-2-2-2-2--2-2-2--2-2--2-2--2-x-12-x-|
A|--x--x-x-x--x-x--x-x--x-x-x-x-x--x-x-x--x-x--x-x--x-x-x--x-|
E|-----------------------------------------------------------|

(Rhythm is essentially the same here, don't let double digit tabs confuse you)

e|------------------------------------------------------------------|
B|--16--x-x---------------------------------------------------------|
G|--x---x-x-16--16-16--16-16--16-16-x-x-7--7-7-7--7-7--7-7--7-7-x-x-|
D|--13--x-x-x---x--x---x--x---x--x--x-x-x--x-x-x--x-x--x-x--x-x-x-x-|
A|--x---x-x-14--14-14--14-14--14-14-x-x-5--5-5-5--5-5--5-5--5-5-x-x-|
E|------------------------------------------------------------------|

                                              
e|--------------------------------------------------------|
B|--------------------------------------------------------|
G|--9--9-9-9--9-9--9-9--9-9-x-x-7--7-7-7--7-7--7-7--5--4--|
D|--x--x-x-x--x-x--x-x--x-x-x-x-x--x-x-x--x-x--x-x--x--x--|
A|--7--7-7-7--7-7--7-7--7-7-x-x-5--5-5-5--5-5--5-5--3--2--|
E|--------------------------------------------------------|


e|--------------------------------------------------------------------|
B|--------------------------------------------------------------------|
G|--16--16-16-16--16-16--16-16--16-16-x-x-7--7-7-7--7-7--7-7--7-7-x-x-|
D|--x---x--x--x---x--x---x--x---x--x--x-x-x--x-x-x--x-x--x-x--x-x-x-x-|
A|--14--14-14-14--14-14--14-14--14-14-x-x-5--5-5-5--5-5--5-5--5-5-x-x-|
E|--------------------------------------------------------------------|

                                                   
e|---------------------------------------------------------|
B|---------------------------------------------------------|
G|--9---9-9-9--9-9--9-9--9-9-x-x-7--7-7-7--7-7--7-7--5--4--|
D|-(10)-x-x-x--x-x--x-x--x-x-x-x(8)-x-x-x--x-x--x-x--x--x--|
A|--7---7-7-7--7-7--7-7--7-7-x-x-5--5-5-5--5-5--5-5--3--2--|
E|---------------------------------------------------------|

(good vibrato can do the trick here if you don't have a whammy bar)

e|----------------------------------------------------------------------------|
B|----------------------------------------------------------------------------|
G|--16--16-16-16--16-16--16-16--19N\/19N~16--16-16-16--16-16--16-16--19N\/19N~|
D|--x---x--x--x---x--x---x--x---x----x---x---x--x--x---x--x---x--x---x----x---|
A|--14--14-14-14--14-14--14-14--17N\/17N~14--14-14-14--14-14--14-14--17N\/17N~|
E|----------------------------------------------------------------------------|
                                                           

e|------------------------------------------------------------------|
B|------------------------------------------------------------------|
G|--16--16-16-16--16-16--16-16--16-16-x-x-9--9-9-9--9-7--7-7--5--4--|
D|--x---x--x--x---x--x---x--x---x--x--x-x-x--x-x-x--x-x--x-x--x--x--|
A|--14--14-14-14--14-14--14-14--14-14-x-x-7--7-7-7--7-5--5-5--3--2--|
E|------------------------------------------------------------------|

(some manic sounding bends here)

e|----------------------------------------------------------------------------|
B|----------------------------------------------------------------------------|
G|--16b-16-16-16b-16-16b-16-16--19N\/19N~16b-16-16-16b-16-16b-16-16--19N\/19N~|
D|--x---x--x--x---x--x---x--x---x----x---x---x--x--x---x--x---x--x---x----x---|
A|--14b-14-14-14b-14-14b-14-14--17N\/17N~14b-14-14-14b-14-14b-14-14--17N\/17N~|
E|----------------------------------------------------------------------------|
                                                           

e|------------------------------------------------------------------|
B|------------------------------------------------------------------|
G|--16b-16-16-16b-16-16b-16-16b-16-16-x-x-9--9-9-9--9-7--7-7--5--4--|
D|--x---x--x--x---x--x---x--x---x--x--x-x-x--x-x-x--x-x--x-x--x--x--|
A|--14b-14-14-14b-14-14b-14-14b-14-14-x-x-7--7-7-7--7-5--5-5--3--2--|
E|------------------------------------------------------------------|

At this part, Isaac plays more and more wrong notes as the song goes on (I think its on
purpose). Instead of going through hell to try and tab out each specific mistake I'm going
to tell you this: play like mad and remember to let yourself accidentally play a fret lower
than you meant to every now and then.

e|--------------------------------------------------|
B|--------------------------------------------------|
G|--9--7--5--4--9--7--5--4--9--7--5--4--5--4--5--4--|  (x2)
D|--x--x--x--x--x--x--x--x--x--x--x--x--x--x--x--x--|
A|--7--5--3--2--7--5--3--2--7--5--3--2--3--2--3--2--|
E|--------------------------------------------------|


e|------------------------------------------------------------------|
B|------------------------------------------------------------------|
G|--9-x-7-x-5-x-4-x-9-x-7-x-5-x-4-x-9-x-7-x-5-x-4-x-5-x-4-x-5-x-4-x-|
D|--x-x-x-x-x-x-x-x-x-x-x-x-x-x-x-x-x-x-x-x-x-x-x-x-x-x-x-x-x-x-x-x-|
A|--7-x-5-x-3-x-2-x-7-x-5-x-3-x-2-x-7-x-5-x-3-x-2-x-3-x-2-x-3-x-2-x-|
E|---(0)-(0)-(0)-(0)-(0)-(0)-(0)-(0)-(0)-(0)-(0)-(0)-(0)-(0)-(0)-(0)|

                                              (I think Isaac gets lost here)
e|----------------------------------------------------------------|
B|-------------------------------------------------------------x-x|
G|--9-x-7-x-5-x-4-x-5-x-4-x-5-x-4-x-5-x-4-x-5-x-4-x-(5)b---5---x-x|
D|--x-x-x-x-x-x-x-x-x-x-x-x-x-x-x-x-x-x-x-x-x-x-x-x--x-----x---x-x|
A|--7-x-5-x-3-x-2-x-3-x-2-x-3-x-2-x-3-x-2-x-3-x-2-x-(3)b---3---x-x|
E|---(0)-(0)-(0)-(0)-(0)-(0)-(0)-(0)-(0)-(0)-(0)-(0)-------0---x-x|


Really sloppy sliding and tremolo picking here--remember to play some notes wrong

(also note to play twice as fast as my notation might make you think)

e|------------------------------------------------------------------|
B|------------------------------------------------------------------|
G|--9-9-9-9\7-7-7-7\5-5-5-5\4-4-4-x-9-9-9-9\7-7-7-7\5-5-5-5\4-4-4-x-|
D|--x-x-x-x-x-x-x-x-x-x-x-x-x-x-x-x-x-x-x-x-x-x-x-x-x-x-x-x-x-x-x-x-|
A|--7-7-7-7\5-5-5-5\3-3-3-3\2-2-2-x-7-7-7-7\5-5-5-5\3-3-3-3\2-2-2-x-|
E|------------------------------------------------------------------|
                                                                       (x3)

e|------------------------------------------------------------------|
B|------------------------------------------------------------------|
G|--9-9-9-9\7-7-7-7\5-5-5-5\4-4-4-x-5-5-5-5\4-4-4-4\5-5-5-5\4-4-4-x-|
D|--x-x-x-x-x-x-x-x-x-x-x-x-x-x-x-x-x-x-x-x-x-x-x-x-x-x-x-x-x-x-x-x-|
A|--7-7-7-7\5-5-5-5\3-3-3-3\2-2-2-x-3-3-3-3\3-3-3-3\3-3-3-3\2-2-2-x-|
E|------------------------------------------------------------------|


e|------------------------------------------------------------------|
B|------------------------------------------------------------------|
G|--9-9-9-9\7-7-7-7\5-5-5-5\4-4-4-x-9-9-9-9\7-7-7-7\5-5-5-5\4-4-4-x-|
D|--x-x-x-x-x-x-x-x-x-x-x-x-x-x-x-x-x-x-x-x-x-x-x-x-x-x-x-x-x-x-x-x-|
A|--7-7-7-7\5-5-5-5\3-3-3-3\2-2-2-x-7-7-7-7\5-5-5-5\3-3-3-3\2-2-2-x-|
E|------------------------------------------------------------------|


e|--------------------------------------------------|
B|--------------------------------------------------|
G|--9-9-9-9\7-7-7-7\5-5-5-5\4-4-4-x-5---4---5---4---|
D|--x-x-x-x-x-x-x-x-x-x-x-x-x-x-x-x-x---x---x---x---|
A|--7-7-7-7\5-5-5-5\3-3-3-3\2-2-2-x-3---2---3---2---|
E|--------------------------------------------------|


(slow down)

e|----------------------------------------|
B|----------------------------------------|
G|--5---4---5---4---5~-----4b----r--------|
D|--x---x---x---x---x------x--------------|
A|--3---2---3---2---3~-----2b----r--------|
E|----------------------------------------|


[END]


*****************************************************************************************

| N~~ flutter tremolo
| N/  tremolo pitch up
| N\  tremolo pitch down (note that an additional / or \ means return to original pitch)
|( )  ghost note
| +   harmonic
| *   pinch harmonic
| /   slide up
| \   slide down
| h   hammer-on
| p   pull-off
| ~   vibrato
| x   Mute note
| b   Bend
| pb  Pre-bend
| br  Bend release

*****************************************************************************************

            
            
Suggest correction
Creating personal tab
Creating personal tab
You can edit any tab online and save it as your Personal.

You can edit, replace or remove any tab part or add personal notes – all changes will be seen only by you.

Personal tabs can be accessed anytime from any device, even offline.
Learn more »
Give kudos to tab author, rate the tab!
1 2 3 4 5
comments
print report bad tab
guest
You may want to rate the tab now too:
select rating
Wanna post a correction for this tab? Suggest correction