Oops, an error
Loading. Please wait.

Heart Cooks Brain tab

version 1
version 1

Whole song

15,923 views 33 this week
3 commentsread comments
1 2 3 4 5
x 5
add to favorites
×
Save as Personal and add changes to this tab that will be seen only by you. Learn more ›
×
You can save this tab as Personal to edit and correct it or add notes. All changes will be seen only by you. Learn more »
launch autoscroll
font size
0
reset
how to read this tab
guitar tuner
edit
Autoscroll
slow
fast
+/-
esc
set tempo
stop
Difficulty
intermediate
"Heart Cooks Brain"
The Lonesome Crowded West
Modest Mouse
tabbed by myslothdied

i thought i'd take a poke at this classic since i haven't encountered any that seemed 
right. this one is kind of hard to get down smoothly, but once you do it feels warm in 
belly.

intro:
e-17-17-17-17-17----17--17--17--17--17--17--17---|
B------------------------------------------------|
G------------------------------------------------|
D------------------------------------------------|
A-----------------15--14--12--14--15--15--15-----|
E------------------------------------------------|


this is pretty much the main riff, slight, easily identified variations:
e------------3-----------------------------3-------3--------|
B-0-3-5-0-3-5-5-0-3-5-0-3-5-0-3-0-3-5-0-3-5-5-0-3-5-5-3-0-3-|
G-----------------------------------------------------------|
D-----------------------------------------------------------|
A-----------------------------------------------------------|
E-----------------------------------------------------------|

occaisionally this comes in:
e--5-3p0-3--------|
B-------5-5p3-0-3-|
G-----------------|
D-----------------|
A-----------------|
E-----------------|

verse (roughly- be heavy on the strings; again, variants):
e-----------------------------|
B-x-x-x-x/x--x-x-x-x/x-x-x/x--|
G-7-7-7-7/9--9-9-9-9/7-7-7/5--|
D-x-x-x-x/x--x-x-x-x/x-x-x-7--|
A-----------------------------|
E-----------------------------|

now go find a dj and start the modest mouse grill cooking

            
            
Suggest correction
Creating personal tab
Creating personal tab
You can edit any tab online and save it as your Personal.

You can edit, replace or remove any tab part or add personal notes – all changes will be seen only by you.

Personal tabs can be accessed anytime from any device, even offline.
Learn more »
comments
print report bad tab
3 comments total.
0 reply
Mark Roxx 295 Mar 30, 2009 04:15 PM

Great tab, but you can get the speed up by doing this instead:
e----0--
B---3---But your way is the real way to play it so...
G--4----
D-------
A-------
E-------

0 reply
shihtzunami 10 Jul 01, 2009 09:52 AM

that's a pretty good poke, but on the intro i'm pretty sure it's harmonics...
e------------- --------------------------
B------------- ----------------- somethin
G-and so on... ----------- like
D------------- -------------------- that
A------------- --------------------------
E------------- --------------------------

0 reply
shihtzunami 10 Jul 01, 2009 10:01 AM

sorry it must not like my symbols for harmonics, in this case h=harmonic
e---------------- --------------------
B---------------- -----5h------5h---5h
G-5h-5h-5h-5h-5h-... ---5h--5h--5h---5h--
D---------------- -7h------5h---------
A---------------- --------------------
E---------------- --------------------

guest
Wanna post a correction for this tab? Suggest correction