Oops, an error
Loading. Please wait.

Ionizes And Atomizes Bass Tab

version 1
version 1

Whole song

Interactive

1,088 views 1 this week
no commentswrite comment
1 2 3 4 5
please rate
add to favorites
launch autoscroll
font size
0
reset
guitar tuner
Tab Pro tools
  • play this tab
  • loop segment
  • change instrument
  • show fretboard
  • metronome
×
Best way to learn
"Ionizes And Atomizes"
Autoscroll
slow
fast
+/-
esc
set tempo
stop
Contributor
Tabbed by:Amadeusz1223

(0:00-2:35)
G--------------------------------------|
D--------------------------7-10--12~---|
A-------------10-7\8-7-5-8---10--12~---|
E-6(x4)-5(x2)--------------------------|

(2:36-3:44)
G--------------------------------------|
D--------------------------------------|
A-------12-10--------10-12-------------|
E-6(x2)--------5(x2)-------------------|

(3:44-4:20)
G--------------------------------------|
D--------------------------------------|
A-------10~-------10~------------------|
E-6(x2)-----5(x2)----------------------|
comments
We did not receive enough feedback on this tab! Please rate:
print report bad tab
1 2 3 4 5
I want to post or [tab]
guest
You may want to rate the tab now too:
select rating
Please do not post tabs as comments. Select "correction" instead!