Oops, an error
Loading. Please wait.

Ionizes And Atomizes solo tab

version 1
version 1

Solo

Whole song

Interactive

1,058 views 1 this week
2 commentsread comments
1 2 3 4 5
x 3
add to favorites
×
Save as Personal and add changes to this tab that will be seen only by you. Learn more ›
×
You can save this tab as Personal to edit and correct it or add notes. All changes will be seen only by you. Learn more »
launch autoscroll
font size
0
reset
how to read this tab
guitar tuner
edit
Autoscroll
slow
fast
+/-
esc
set tempo
stop
Author
e-------------------------------10-10-10-10-10-------------|
B-10h11-11-11-11-11-10-10-10-10----------------13-13-13-13-|
G----------------------------------------------------------|
D----------------------------------------------------------|
A----------------------------------------------------------|
E----------------------------------------------------------|

e-------------------------------10-10-10-10-10-------------|
B-10h11-11-11-11-11-10-10-10-10----------------13-13-13-13-|
G----------------------------------------------------------|
D----------------------------------------------------------|
A----------------------------------------------------------|
E----------------------------------------------------------|


The other tab for this song was perfect except for the solo, so I made this. It sounds 
The solo is played about ten times, I'm not exactly sure.

            
            
Suggest correction
Creating personal tab
Creating personal tab
You can edit any tab online and save it as your Personal.

You can edit, replace or remove any tab part or add personal notes – all changes will be seen only by you.

Personal tabs can be accessed anytime from any device, even offline.
Learn more »
Give kudos to tab author, rate the tab!
1 2 3 4 5
comments
print report bad tab
2 comments total.
0 reply
New_York-Doll 75 Sep 25, 2004 08:00 PM

yeah, the other tab wasnt right about this,
the only thing that bothers me about this tab is that i play 15 on the B string instead of 10 on the e string - think it sounds better with the little slide you can make there :)

0 reply
the piper 1,413 Sep 24, 2006 09:59 AM

I actually think that they actually use these chords:

e|----------------|
B|-10/11-10-15-13-|
G|--x/-x--x--x--x-|
D|--7/-8--7-12-10-|
A|----------------|
E|----------------|

I think it just sounds more like the song

guest
You may want to rate the tab now too:
select rating
Wanna post a correction for this tab? Suggest correction