Oops, an error
Loading. Please wait.

Little Motel chords

version 1
version 1

Whole song

Interactive

29,945 views 15 this week
3 commentsread comments
1 2 3 4 5
x 9
add to favorites
×
Save as Personal and add changes to this tab that will be seen only by you. Learn more ›
×
You can save this tab as Personal to edit and correct it or add notes. All changes will be seen only by you. Learn more »
launch autoscroll
font size
0
reset
transpose
0
reset
simplify chords
display chords
guitar tuner
edit
Autoscroll
slow
fast
+/-
esc
set tempo
stop
Difficulty
Strumming
There is no strumming pattern for this song yet. and get +5 IQ
chord/acoustic version of Little Motel by Modest Mouse
by Collwyn Craig

standard tuning
the basic chords for this song are:

verse: F and C alternating
chorus: Am G C F


If you want to spice it up:

play the verse:
Fmaj7          Fmaj7sus2  |  Fmaj7sus2      F
--0-------------0---------------0--------0--1-|
--1-------------1---------------1--------1--1-|
--2-------------0---------------0--------2--2-|
--3-------------3---------------3--------3--3-|
--3-------------3---------------3--------3--3-|
----------------------------------------------|
I hope that you like it in your little motel

      C            Csus2      |     Csus2       Cadd12
------0-------------0----------------0-----------0--3---|
------1-------------1----------------1-----------1--1---|
------0-------------0----------------0-----------0--0---|
------2-------------0----------------0-----------2--2---|
------3-------------3----------------3-----------3--3---|
--------------------------------------------------------|
and i hope that the suite sleeps and suits you well


play the chorus:
Am     Asus4 | G     Gsus4 | C    
| F

            
            
Suggest correction
Creating personal tab
Creating personal tab
You can edit any tab online and save it as your Personal.

You can edit, replace or remove any tab part or add personal notes – all changes will be seen only by you.

Personal tabs can be accessed anytime from any device, even offline.
Learn more »
comments
print report bad tab
3 comments total.
0 reply
zt13 10 Mar 22, 2007 05:56 PM

non accurate, not precise

-1 reply
Whoabot 7,154 Mar 28, 2007 09:14 AM

^ zt, you tard. this is the author's own acoustic arrangement.

+1 reply
mattcoggins515 10 Jan 14, 2010 01:31 PM

Idc who's arrangement it is the verses are wrong

guest
Wanna post a correction for this tab? Suggest correction