Oops, an error
Loading. Please wait.
We have an official Lives tab made by UG professional guitarists. Check out the tab »
×
23,984 views 9 this week
2 commentsread comments
1 2 3 4 5
x 3
add to favorites
×
Save as Personal and add changes to this tab that will be seen only by you. Learn more ›
×
You can save this tab as Personal to edit and correct it or add notes. All changes will be seen only by you. Learn more »
launch autoscroll
font size
0
reset
how to read this tab
guitar tuner
edit
Autoscroll
slow
fast
+/-
esc
set tempo
stop
Modest Mouse
"Lives" 
Tabbed by Cohen Hartman
If you have any questions, comments, or corrections, email me at cohen330@juno.com

No one had this tab correctly on the site, so i had to fix it.


Intro:(Part 1):("Everyone's afraid of their own lives...")
 e|-------------------------------------------------------------------|
 B|--------------------2----------------------------------------------|
 G|--------------------2----------------------------------------------|
 D|--------2---------4---4---------2---------2------------------------|
 A|------4---5-4-2-5-------------4---5-4-2-4--------------------------|
 E|--2-5---------------------2-5--------------------------------------|

-this plays through  the beginning and then later switches into Part 2

Part 2:("well, you were the dull sound of sharp math...")
 e|-------------------------------------------------------------------|
 B|-------------------------------------------------------------------|
 G|--------------------4-4-4-4-4-4-4-4--------------------------------|
 D|--4-4-4-4-4-4-4-4---4-4-4-4-4-4-4-4--------------------------------|
 A|--4-4-4-4-4-4-4-4---2-2-2-2-2-2-2-2--------------------------------|
 E|--2-2-2-2-2-2-2-2--------------------------------------------------|


-the song then goes back tp Part 1 and plays for four measures.  The song then changes
completely and starts off at part 3:(you can figure out the strumming pattern on your
own.)

Part 3:("and it's our lives...and it's hard to remember...")
 e|-------------------------------------------------------------------|
 B|--3-3-3-3-5-5-3-3---15-15-12-12-15-15-12-10-8-3-3-3-3-5-5-3-3------|
 G|--0-0-0-0-0-0-0-0---0--0--0--0--0--0--0--0--0-0-0-0-0-0-0-0-0------|
 D|-------------------------------------------------------------------|
 A|-------------------------------------------------------------------|
 E|-------------------------------------------------------------------|

-this goes on for a little while with Brock saying "it's hard to remember..."
after a while, though, it gets ready to exit into the next part and Brock plays the end to part 3.

 Part 3:("It's hard to remebeeeeeeeer."
 e|-------------------------------------------------------------------|
 B|--15-15-12-10-8-8-8-8----15-15-12-10-8-8-8-8-----------------------|
 G|--0--0--0--0--0-0-0-0----0--0--0--0--0-0-0-0-----------------------|
 D|-------------------------------------------------------------------|
 A|-------------------------------------------------------------------|
 E|-------------------------------------------------------------------|

-fades into Part 4

 Part 4:("My mom's God is a woman, and my mom she is a witch..."
 e|-------------------------------------------------------------------|
 B|-------------------------------------------------------------------|
 G|--5-5-5-5--4-4-4-4-------------------------------------------------|
 D|--5-5-5-5--5-5-5-5--5-5-5-5--4-4-5-4-------------------------------|
 A|--3-3-3-3--2-2-2-2--5-5-5-5--5-5-5-5-------------------------------|
 E|--------------------3-3-3-3--2-2-3-2-------------------------------|

-This plays until Part 1 starts again to end the song.

 Thank you for using my tab and Modest Mouse rules!

            
            
Suggest correction
Creating personal tab
Creating personal tab
You can edit any tab online and save it as your Personal.

You can edit, replace or remove any tab part or add personal notes – all changes will be seen only by you.

Personal tabs can be accessed anytime from any device, even offline.
Learn more »
Give kudos to tab author, rate the tab!
1 2 3 4 5
comments
print report bad tab
2 comments total.
0 reply
romule 10 Jun 17, 2013 07:33 AM

Correction to part one.
-----------------------------------------------
-------------------2---------------------------
-------------------2---------------------------
-------2---------4---4-------2---------2-------
-----4---5-4-2-5-----------4---5-4-2-5---5-4-2-
-2-5-------------------2-5---------------------

0 reply
lopan137 10 Oct 04, 2013 04:32 PM

(/) Slide Up (\) Slide Down (v) Vibrato
Correction to into
this seems easier and sounds the same! d-0 and a-5 are the same...
E|-----------------------------------
B|-----------------------------2v----
G|-----------------------------2v----
D|-----------2--0--------0--4-----4--
A|--------4--------4--2--------------
E|--2--5-----------------------------

then for the second part it sounds more like

E|----------------------------------------
B|----------------------------------------
G|----------------------------------------
D|-----------2--0--------0--1\2--0--------
A|--------4--------4--2-------------4--2--
E|--2--5----------------------------------

soooo

E|--------------------------------------------------
B|-------------------2v-----------------------------
G|-------------------2v-----------------------------
D|-------2-0-----0-4----4-------2-0-----0-1/2-0-----
A|-----4-----4-2--------------4-----4-2---------4-2-
E|-2-5--------------------2-5-----------------------

guest
You may want to rate the tab now too:
select rating
Wanna post a correction for this tab? Suggest correction