Oops, an error
Loading. Please wait.

Lives Tab

version 5
version 5

Interactive

14,723 views 6 this week
2 commentsread comments
1 2 3 4 5
excellent!
x 7
add to favorites
launch autoscroll
font size
0
reset
how to read this tab
guitar tuner
Autoscroll
slow
fast
+/-
esc
set tempo
stop
Help us to improve Ultimate-Guitar.com Take our survey!
×
Author
LIVES
Modest Mouse
The Moon & Antarctica

Tab by Devin Miller

Tuning: Standard EADGBe
Time Signature: 6/8


INTRO/VERSE RIFF

     E E E E E E   E E E Q   E   E E E E E E   E E  E E E E
e||--------------|-------------|-------------|--------------|
B||--------------|-------------|-------------|--------------|
G||--------------|-------2~~---|-------------|--------------|
D||--------2-0---|---0-4-----4-|-------2-0---|--------------|
A||----0-4-----4-|-2-----------|---0-4-----4-|-2-4-s7-4-2-0-|
E||--2-----------|-------------|-2-----------|--------------|


   electric guitar: 

                   Q  E Q    E   
e||--------------|-------------|-------------|--------------|
B||--------------|------5brb---|-------------|--------------|
G||--------------|-----------6-|-------------|--------------|
D||--------------|-------------|-------------|--------------|
A||--------------|-------------|-------------|--------------|
E||--------------|-------------|-------------|--------------|

   electric riff right before next section:

                     Q    E    Q  E Q  E     Q   E  E E E 
e|------------|-------------|-------------|----------------|
B|------------|------5brb---|-------------|----------------|
G|------------|-----------6-|--6--7-6--7--|----------------|
D|------------|-------------|-------------|--9--s11-9-7----|
A|------------|-------------|-------------|-------------7--|
E|------------|-------------|-------------|----------------|


YOU WERE THE SOUND OF SHARP MATH:


    E  E  E  E  S S S S    E  E  E  E  S S S S
e|----------------------|----------------------|
B|----------------------|----------------------|
G|----------------------|--4--4--4--4--4-4-x-x-|
D|--4--4--4--4--4-4-x-x-|--4--4--4--4--4-4-x-x-|
A|--4--4--4--4--4-4-x-x-|--2--2--2--2--2-2-x-x-|
E|--2--2--2--2--2-2-x-x-|----------------------|


CONTINUE INTRO RIFF

   electric guitar riff:

  PM PM   PM PM PM PM  
   E  E  E  E  E  E   
e|-------------------|
B|-------------------|
G|-4--6-s9--6--4--6--|
D|-------------------|
A|-------------------|
E|-------------------|

IT'S HARD TO REMEMBER:


    E.  E  S E.  E  S    E.  E  S E  S S E   
e|--------------------|---------------------|
B|--3--------3--------|--3--------3----3----|
G|--0--------0--------|--0--------0----0-x--|
D|--2---2--2-2---2--2-|--2---2--2-2--2-2-x--|
A|--3---3--3-3---3--3-|--3---3--3-3--3-3-x--|
E|--------------------|---------------------|


      E   S  S  S  S  E   S  S  S  S     E   S  E   S  E   E  E   
  |----------------------------------|---------------------------|
  |--15-----15-------12-----12-------|--15-----15--15-12--10--8--|
  |---0---0--0--0--x--0---0--0--0--x-|---0---0--0---0--0---0--0--|
  |---x---x--x--x--x--x---x--x--x--x-|---x---x--x---x--x---x--x--|
  |--15--15-15-15--x-12--12-12-12--x-|--15--15-15-----12--10--8--|
  |----------------------------------|---------------------------|


BRIDGE (C, Em, G, D):

   E   S  E  S E  S S S S   E   S  E  S E  S S S S   E  S E  S E  S S S S  
e|------------------------|------------------------|----------------------|
B|-------------3----------|-------------3----------|----------------------|
G|-0--(0)-0--0-0--0-0-x-x-|-0--(0)-0--0-0--0-0-x---|-0--0------0--0-0-0-0-|
D|-x---x--x--x-x--x-x-x-x-|-x---x--x--x-x--x-x-x---|-0--0-0--0-0--0-0-0-0-|
A|-3---3--3--3-3--3-3-x-x-|-2---2--2--2-2--2-2-x-0-|-x--x-x--x-x--x-x-x-x-|
E|------------------------|----------------------0-|-3--3-3--3-3--3-3-3-3-|


     E  S E  S E  E  E 
  |---------------------|
  |---------------------|
  |---------------------|
  |--0--0-0--0-0--0-----|
  |--x--x-x--x-x--x-----|
  |--2--2-2--2-2--3--5--|


MY MOM'S GOD IS A WOMAN (has more notes on the higher strings):

   E   S  E  S E  S S S S   E   S  E  S E  S S S S   E  S E  S E  S S S S  
e|------------------------|------------------------|----------------------|
B|-------------3----------|-------------3----------|-----------3----------|
G|-0--(0)-0--0-0--0-0-x-x-|-0--(0)-0--0-0--0-0-x---|-0--0------0--0-0-0-0-|
D|-x---x--x--x-x--x-x-x-x-|-x---x--x--x-x--x-x-x---|-0--0-0--0-0--0-0-0-0-|
A|-3---3--3--3-3--3-3-x-x-|-2---2--2--2-2--2-2-x-0-|-x--x-x--x-x--x-x-x-x-|
E|------------------------|----------------------0-|-3--3-3--3-3--3-3-3-3-|


     E  S E  S E  E  E 
  |---------------------|
  |-------3-------------|
  |-------2-------------|
  |--0--0-0--0-0--0-----|
  |--x--x-x--x-x--x-----|
  |--2--2-2--2-2--3--5--|


OUTRO (same as Intro riff on acoustic)


   electric guitar: 

                        NH    NH
                   Q  E Q      E   
e|--------------|-------12brb----|-------------|-------------|
B|--------------|----------------|-------------|-------------|
G|--------------|----------------|-------------|-------------|
D|--------------|----------------|-------------|-------------|
A|--------------|-------------9--|-------------|-------------|
E|--------------|----------------|-------------|-------------|




Duration Legend
---------------
Q - quarter
E - 8th
S - 16th


Tablature Legend
----------------
x - dead note
(n) - ghost note
NH - natural harmonic
b - bend
br - bendRelease
brb - bendReleaseBend
s - slide to
~ - vibrato
Suggest correction
What's this?
You can suggest a correction to this tab. Community and Mods will review your correction and vote to approve or reject it.
comments
print report bad tab
2 comments total.
0 reply
representin GC 420 wrote on August 11 2012, 10:52 pm

Hey dude, great tab but i would recommend you try:


E S S S S E S S S S E S E S E E E
|----------------------------------|---------------------------|
|--15-----15-------12-----12-------|--15-----15--15-12--10--8--|
|---0---0--0--0--x--0---0--0--0--x-|---0---0--0---0--0---0--0--|
|---x---x--x--x--x--x---x--x--x--x-|---x---x--x---x--x---x--x--|
|--17--17-17-17--x-14--14-14-14--x-|--17--17-17-----14--12--10--|
|----------------------------------|---------------------------|

0 reply
representin GC 420 wrote on August 11 2012, 10:53 pm

^ lol forgot to keep writing. Its for the "hard to remember" bit.

guest
You may want to rate the tab now too:
select rating
Please do not post tabs as comments. Select "correction" instead!