Oops, an error
Loading. Please wait.

Missed The Boat tab

version 1
version 1

Whole song

Interactive

106,694 views 51 this week
20 commentsread comments
1 2 3 4 5
x 19
add to favorites
×
Save as Personal and add changes to this tab that will be seen only by you. Learn more ›
×
You can save this tab as Personal to edit and correct it or add notes. All changes will be seen only by you. Learn more »
launch autoscroll
font size
0
reset
how to read this tab
guitar tuner
edit
Autoscroll
slow
fast
+/-
esc
set tempo
stop
Author
[Intro]
e|-------------------------|-------------------|-------------------------|----------------------|
B|-------------------------|-------------------|-------------------------|----------------------|
G|--9---7---6--6--7--7--9--|--9---7---9--11----|--9---7---6--6--7--6--7--|--4--4-4-4-4-4-4-7----|
D|-------------------------|-------------------|-------------------------|----------------------|
A|--7---5---4--4--5--5--7--|--7---5---7--9-----|--7---5---4--4--5--4--5--|--2--2-2-2-2-2-2-5----|
E|-------------------------|-------------------|-------------------------|----------------------|

e|-------------------|------------------|------------------------------|--------------------------|
B|--------10--8/7----|-------10--8/7----|------------------------------|--------------------------|
G|--/7------------7--|--7------------7--|--4--4-4-4-4-4--4--4-4-4-4-4--|--4--4-4-4-4-4--7----2----|
D|-------------------|------------------|------------------------------|--------------------------|
A|-------------------|------------------|------------------------------|--------------------------|
E|-------------------|------------------|------------------------------|--------------------------|(x2)

[Chorus/Pre-verse chords]
e|----------------------|----------------------|
B|----------------------|----------------------|
G|--4--4--4--6--6--7----|--4--4--4--6--6--7----|
D|----------------------|----------------------|
A|--2--2--2--4--4--5----|--2--2--2--4--4--5----|
E|----------------------|----------------------|

[Guitar solo 1]
e|-----------------------------|--------------------------|
B|-----------------------------|--------------------------|
G|---------------6/7/9--9--7/6-|--------------------------|
D|-----4/5-7--7----------------|--7--7--7/---4--4h5p4-----|
A|--5--------------------------|-----------------------5--|
E|-----------------------------|--------------------------|
                                     
e|-------------|-----------------------|
B|-------------|-----------------------|
G|-------------|-----------------------|
D|-------------|-----------------------|
A|-------------|-----------------------|
E|--7/----5----|--2------2--2h-3--0----|(x2)

[Guitar solo 2/outro]
e|---------------------|------------------|---------------|
B|---------------------|------------------|---------------|
G|----------7b---------|------------------|---------------|
D|--9p7--7--------7/---|--5----4----------|---------------|
A|---------------------|------------7--5--|--7----9--5----|
E|---------------------|------------------|---------------|

e|----------------------------|---------------------|------------------|
B|----------------------------|---------------------|------------------|
G|---------------6/7/9--7--6--|----------7b---------|------------------|
D|-----4/5-7--7---------------|--9p7---7-------7/---|--5----4----------|
A|--5-------------------------|---------------------|------------7--5--|
E|----------------------------|---------------------|------------------|

e|---------------|-------------------------|---------------------|
B|---------------|-------------------------|--[9]----------------|
G|---------------|---------------7---------|---------------------|
D|---------------|-----4/5-7--7-------7----|---------------------|
A|--7----9--5----|--5----------------------|---------------------|
E|---------------|-------------------------|---------------------|

(Guitar 2) 
JOHNNY MARR

[Instrumental]
e|--0--------|--3--------|
B|--3--------|--3--------|
G|--2--------|--0--------|
D|--0--------|--0--------|
A|--0--------|--2--------|
E|-----------|--3--------|

e|--3--3-3-3-3-5--5-5-5-5-------|---------------|---------------|----------------|
B|--3--3-3-3-3-5--5-5-5-5-------|---------------|---------------|-----------3----|
G|--4--4-4-4-4-7--7-7-7-7-7-----|--7----7--7----|--7----7--7----|--4-----4-------|
D|---------------------------7--|-------------7-|-------------7-|-----5----------|
A|------------------------------|---------------|---------------|----------------|
E|------------------------------|---------------|---------------|----------------|(x2)

[Interlude]
e|------------------------|-------------------------|--3--3-3-3-3-5--5-5-5-5-------|
B|------------------------|--------------------3----|--3--3-3-3-3-5--5-5-5-5-------|
G|--7--7-----7----7--7----|--7--7-----4-----4-------|--4--4-4-4-4-7--7-7-7-7-7-----|
D|--------7-------------7-|--------7-----5----------|---------------------------7--|
A|------------------------|-------------------------|------------------------------|
E|------------------------|-------------------------|------------------------------|

[Chorus]
e|--5--5-5-5--5--5-5-5--5--5--|--12--12-12-12--12--12--12--12--s--|--3----3-------|
B|----------------------------|-----------------------------------|--3------------|
G|----------------------------|-----------------------------------|--4-------4----|
D|----------------------------|-----------------------------------|--5------------|
A|----------------------------|-----------------------------------|---------------|
E|----------------------------|-----------------------------------|---------------|

e|--5--5-5-5--5--5-5-5--5--5--|--12--12-12-12--12--12--12--12--s--|
B|----------------------------|-----------------------------------|
G|----------------------------|-----------------------------------|
D|----------------------------|-----------------------------------|
A|----------------------------|-----------------------------------|
E|----------------------------|-----------------------------------|

[Ending 2]
e|----------------------|-------------------------|
B|--0--0--0--2--2--3----|--0--0--0--2--0--2--0----|
G|----------------------|-------------------------|
D|----------------------|-------------------------|
A|----------------------|-------------------------|
E|----------------------|-------------------------|

(Guitar 3) 
Clay Jones
[Instrumental/verse]
e|-2h3p2---------2h3p2---------2h3p2--------2-|
B|-------3----3--------3----3--------3----3---|
G|--------------------------------------------|
D|-0-------------0-------------0--------------|
A|--------------------------------------------|
E|--------------------------------------------| 

e|--------------------------------------------|
B|-2h3p2---------2h3p2---------2h3p2--------3-|
G|-------4----4--------4----4--------4----4---|
D|--------------------------------------------|
A|--------------------------------------------|
E|-3-------------3-------------3--------------|

[Chorus]
 *strum these chords*
e|--0--------|-----------|--3--------|
B|--3--------|--2--------|--3--------|
G|--2--------|--2--------|--4--------|
D|--0--------|--2--------|--5--------|
A|-----------|--0--------|--5--------|
E|-----------|-----------|--3--------|

[Solo chords]
e|--2--------3--------|--5--------3--------2-----|------------|------------------|
B|--3--------3--------|--3--------3-----------3--|--3----3----|--3----2--0-------|
G|--------------------|--------------------------|--2----2----|-------------2----|
D|--------------------|--------------------------|------------|------------------|
A|--------------------|--------------------------|------------|------------------|
E|--------------------|--------------------------|------------|------------------|


************************************

| /    Slide up
| h    Hammer-on
| p    Pull-off
| b    Bend

************************************

            
            
Suggest correction
Creating personal tab
Creating personal tab
You can edit any tab online and save it as your Personal.

You can edit, replace or remove any tab part or add personal notes – all changes will be seen only by you.

Personal tabs can be accessed anytime from any device, even offline.
Learn more »
comments
print report bad tab
20 comments total. Showing first comments.
+1 reply
O Henry 142 Mar 20, 2007 09:24 PM

VERY NICE MY FRYEND!!! A LITTLE CONFUSING, BUT VERY GOOD & VERY QUICK OFF THE BAT. I GOT THIS ALBUM LAST NIGHT AT MIDNIGHT AT A EARLY PREMIER AND IT IS VERY UNEXPLAINABLY DIFFERENT FROM THEIR PREVIOUS ALBUMS BUT VERY VERY GOOD. I WOULD SAY MODEST MOUSE'S BEST ALBUMS ARE "THIS IS A LONG DRIVE FOR SOMEONE WITH NOTHING TO THINK ABOUT" AND "SAD SAPPY SUCKER", BUT GOOD JOB MODEST MOUSE!!! I'M KINDA DISAPPOINTED THAT KNOW ONE HAS TABBED "PEOPLE AS PLACES AS PEOPLE", THE BEST SONG ON THIS ALBUM, SO COULD SOMEONE DO THAT? ALSO, COULD SOMEONE TAB THE HOLE THING OF "SPITTING VENOM", "INVISIBLE", "FLORIDA", AND "MARCH INTO THE SEA"? THANX I'D APPRECIATE IT, I'M NOT GOOD AT TABBING SONGS; JUST PLAYING AND WRITING THEM.

0 reply
degaspiv 631 Mar 21, 2007 08:54 AM

I'm working on People as Places for GuitarPRO, but I can post the ASCII tab today. I also got a lot of the others in ASCII, so I'll post soon.

Thank you.

0 reply
JimiOwnsYou21 10 Apr 12, 2007 06:20 PM

whoever you are, you are my new best friend. great job

guest
You may want to rate the tab now too:
select rating
Wanna post a correction for this tab? Suggest correction