Oops, an error
Loading. Please wait.

Night On The Sun tab

version 2
version 2

Whole song

Interactive

2,155 views 3 this week
4 commentsread comments
1 2 3 4 5
x 3
add to favorites
×
Save as Personal and add changes to this tab that will be seen only by you. Learn more ›
×
You can save this tab as Personal to edit and correct it or add notes. All changes will be seen only by you. Learn more »
launch autoscroll
font size
0
reset
how to read this tab
guitar tuner
edit
Autoscroll
slow
fast
+/-
esc
set tempo
stop
Author
Difficulty
this is an e tuning but just tune it low if you know the song then you will know what i'm talking about 



--------------------------------------'
--------------------------------------'
--------------------------------------'
--------------------------------------'  2x
-----2--4--2--7--8--7/--4--5--4/2-----'
--3-----------------------------------'


------------------------------------------------------------------'
------------------------------------------------------------------'
---------------------------------------------------------0--------'
-----------------------------------------------------------0------' 1 time
----2--4--2--7--8--7/--4--5--4--7--9--10--9/--7/--5--5------------'
-3----------------------------------------------------------------'


------------------------------------------'
------------------------------------------'
------------------------------------------'
------------------------------------------'  2x
-----2--4--2--7--8--7/--4--5--4/2---------'
--3---------------------------------------'


-------------------------------------------------------------------'
-------------------------------------------------------------------'
---------------------------------------------------0---------------'
------------------------------------------------------0------------' 1 time 
----2--4--2--7--8--7/4--5--4--7--9--10--9/7--5--5------------------'
-3---------------------------------------------------------3-------'


7th fr harmonic      12th fr harmonic
---------------'    '-----------------------------------------------------
------0--------'    '-----0-----------------------------------------------
------0--------'    '-----0-----------------------------------------------
------0--------'    '-----0-----------------------------------------------
---------------'    '-----------------------------------------------------
---------------'    '-----------------------------------------------------
  7th har       so turn off the light cause it's night on the sun,,your 
---------------'
------0--------'
------0--------'
------0--------'
---------------'
---------------'                  12th fr har       7th fr har
hopelessly hopless i hope so,,,'--------------'   '--------------'
                               '-----0--------'   '------0-------'
                               '-----0--------'   '------0-------'
                               '-----0--------'   '------0-------'
                               '--------------'   '--------------'
                               '--------------'   '--------------'
                                  for you

now struming-----------------------------------------------
---------------------------' '--------------------------'
---------------------------' '--------------------------'
---------------------------' '--------------------------'
--9----9----9----9----9----' '-4---4---4---4---4--------'
--10---10---10---10---10--' '--5---5---5---5---5-------'
---------------------------' '--------------------------'



freeze your blood & then stab it into in to '
9---------------------------------------'
10

stab you're blood into me,
4-------------------------'
5

and blend
9   9   9   9   9
10  10  10  10  10 

                      i eat my own blood and get filled up get filled up 
--------------------' -----------------------------------------------------
--------------------' -----------------------------------------------------
--------------------' -----------------------------------------------------
-4----4---4---4---4-' ---9-------9------9------9------9------9------9------
-5----5---5---5---5-' ---10------10-----10-----10-----10-----10-----10-----
--------------------' -----------------------------------------------------


i get filled up on me, and end 
----------------------------------------------'
----------------------------------------------'
----------------------------------------------'
-4---4---4---4---4------9----9---9---9----9---'
-5---5---5---5---5------10---10--10--10---10--'
----------------------------------------------'


                       so turn of the light cuz it's night on the sun,your
---------------------  ------------------------------------------------
---------------------  ------------------------------------------------
---------------------  ------------------------------------------------
-4---4---4---4---4---  ----9-------------------------------------------
-5---5---5---5---5---  ----10------------------------------------------
---------------------  ------------------------------------------------




(7th fr har)                       (12th fr harmonics)  (7th fr har)
hopelessly hopeless i hope so,      for you



----------------------------------------------------------------------------
then repeat 
but when it get to the end part 
"i get filled up on me and end",,,,,freeze your blood & stab it into me 
                                    ----------------------------------------
this part is all one down strum*   ----------------------------------------
                                    ----------------------------------------
                                    ----------------------------------------
                                    --9-------------------------------------
                                    --10------------------------------------

freeze your blood & stab it into me
4
5

freeze your blood and stab it into me
9
10

stab your blood into me and blend
4
5

turn off the light cause it's night on the sun,you're
9
10

(7th fr har)
hopelessly hopeless i hope so for you
----------------------------------------
bridge/solo ect 

---------------------------------------------'
------------7----------------------7---------'
-4/7--4--7----7--------4/7--4---7-----7------'
---------7-------7--------------7--------7---'
---------------------------------------------'
---------------------------------------------'



------------------------------'
-7--7--7--7--7--8--7----------'
-7--7--7--7------------9---7--' 2x  
-7--7--7--7-------------------'
------------------------------'
------------------------------'


--------------------------------------'
--------------------------------------'
----7---9---11---12---11---9---7---7--'2x
--------------------------------------'
--------------------------------------'
--------------------------------------'



--------------------------------------'
-8/10---8---7--8--7-------------------'
----------------------9----7----------'2x  then back the start of the bridge
--------------------------------------'
--------------------------------------'
--------------------------------------'

listen to the song to see how manny times you have to do this 



then,

one thing about this town it's 500 miles underground
(strum this)

  
-------------------------------------------------------------------'
------------------------------------------------7------------------'
---------7------7------7---10-------7---10------7------------------'
------9-------9------9------------9-------------7------------------'
--10-------10-----10-----------10----------------------------------'
-------------------------------------------------------------------'

but it's alright

------------------------'
--7--------7------------'
--7----9---7------------'
--7--------7------------'
------------------------'
------------------------'
 repeat for the next lines 
then just pick this chord till the song fades out and,
---------------'
-------10------'  then just end it with this
----7----------'  -----------------------------------
--9------------'  ------7----------------------------
10-------------'  ------7----------------------------
---------------'  ------7----------------------------
                  -----------------------------------
                  -----------------------------------

have fun,
bobbytabasco 













Suggest correction
Creating personal tab
Creating personal tab
You can edit any tab online and save it as your Personal.

You can edit, replace or remove any tab part or add personal notes – all changes will be seen only by you.

Personal tabs can be accessed anytime from any device, even offline.
Learn more »
Give kudos to tab author, rate the tab!
1 2 3 4 5
comments
print report bad tab
4 comments total. Showing first comments.
0 reply
Havenspear 103 Aug 11, 2007 11:00 AM

I think you mean it's tuned down have a step.
Eb tuning

0 reply
bobbytabasco 224 May 12, 2008 11:12 AM

So I was re-examining this song and I was thinking that instead of tuning it down a half step that a regular tuning sounds more accurate check this out
INTRO...the number in () is a gost note just hit it with out a pick or a strum*kinda like a hammer on*


----------------------------------------'
----------------------------------------'
----------------------------------------'
---------0-h1---------------------------'4x
---0-2-0-------(3)-& pull off--2-h3-0---'
-1--------------------------------------'
then this afterward
---------------------'
---------------------'
---------------------'
---------------2-----'
-5-7-8-7/5/3-3---0---'
---------------------'

and then change the chorus from the 4/5 and 10/9,, to harmonics
on 12th and 7th frets

0 reply
bobbytabasco 224 May 12, 2008 11:25 AM

also the interlude and do them in this order and 2x each

---------------' '-----------------------' '---------------'
-----------5---' '-0--5-5-5-5-5-h6-5-----' '-----5-6-5-----'
-3/5-2-0-5---5-' '-0--5-5-5-5-5------7-5-' '-5-7-------7-5-'
---------------' '-----------------------' '---------------'
---------------' '-----------------------' '---------------'
---------------' '-----------------------' '---------------'

-------------------'
-6/8-6/5-6-5-------'
-------------7-5---'
-------------------'
-------------------'
-------------------'

guest
You may want to rate the tab now too:
select rating
Wanna post a correction for this tab? Suggest correction