Oops, an error
Loading. Please wait.

Of Course We Know tab

46 views 3 this week
no commentswrite comment
1 2 3 4 5
3 more votes to show rating
add to favorites
×
Save as Personal and add changes to this tab that will be seen only by you. Learn more ›
×
You can save this tab as Personal to edit and correct it or add notes. All changes will be seen only by you. Learn more »
launch autoscroll
font size
0
reset
how to read this tab
guitar tuner
edit
Autoscroll
slow
fast
+/-
esc
set tempo
stop
Author
Difficulty
OF COURSE WE KNOW
by Modest Mouse


[Intro]
Chords marked with a "b" should be bended up approx. a whole step and released back down.
e|----------------------|----------------------|-------------------------|----------------------------|
B|----------------------|----------------------|-------------------------|----------------------------|
G|--12---12---12---12b--|--10---10---10b--10b--|--7----7----7----7--7\---|----5---5---5---5-----------|
D|--12---12---12---12b--|--10---10---10b--10b--|--7----7----7----7--7\---|----5---5---5---5-----------|
A|--10---10---10---10b--|--8----8----8b---8b---|--5----5----5----5--5\---|----3---3---3---3-----------|
E|----------------------|----------------------|-------------------------|----------------------------|


e|----------------------|----------------------|-------------------------|----------------------------|
B|----------------------|----------------------|-------------------------|----------------------------|
G|--12---12---12---12b--|--10---10---10---10b--|--7----7----7----7--7\---|--12-10-9--7--5--7--9--7----|
D|--12---12---12---12b--|--10---10---10---10b--|--7----7----7----7--7\---|----------------------------|
A|--10---10---10---10b--|--8----8----8----8b---|--5----5----5----5--5\---|--10-8--7--5--3--5--7--5----|
E|----------------------|----------------------|-------------------------|----------------------------|


e|----------------------|----------------------|-------------------------|----------------------------|
B|----------------------|----------------------|-------------------------|----------------------------|
G|--12---12---12---12b--|--10---10---10---10b--|--7----7----7----7--7\---|--12-10-9--7--5--7--12------|
D|--12---12---12---12b--|--10---10---10---10b--|--7----7----7----7--7\---|----------------------------|
A|--10---10---10---10b--|--8----8----8----8b---|--5----5----5----5--5\---|--10-8--7--5--3--5--10------|
E|----------------------|----------------------|-------------------------|----------------------------|

[Transition (electric piano)]
These are last two bars of the electric piano theme, played directly after the intro.
e|--------------------3--5----|--0-----0-----0-------------|
B|--3-----3-----3-------------|-(1)---(1)---(1)----3--1----|
G|----------------------------|----------------------------|
D|----------------------------|----------------------------|
A|----------------------------|----------------------------|
E|----------------------------|----------------------------|

[Electric piano theme]
e|--7-----7-----7-----8--10---|--5-----5-----5-----3--1----|
B|-(8)---(8)---(8)------------|-(6)---(6)---(6)------------|
G|----------------------------|----------------------------|
D|----------------------------|----------------------------|
A|----------------------------|----------------------------|
E|----------------------------|----------------------------|


e|--1-----1-----1-----3--5----|--0-----0-----0-------------|
B|--3-----3-----3-------------|-(1)---(1)---(1)----3--1----|
G|----------------------------|----------------------------|
D|----------------------------|----------------------------|
A|----------------------------|----------------------------|
E|----------------------------|----------------------------|

[Ambient guitar]
These notes are played in the background, utilizing slow, wide vibrato for a "detuned" effect.
Later they are played an octave down. During the second verse it's mostly freeform,
just improvising over the chord tones. Another guitar also comes in with a reverse delay,
again mostly playing chord tones.

e|----------------------------|----------------------------|
B|----------------------------|----------------------------|
G|-----12b--------------------|-----10b--------------------|
D|----------------------------|----------------------------|
A|----------------------------|----------------------------|
E|----------------------------|----------------------------|


e|----------------------------|----------------------------|
B|----------------------------|----------------------------|
G|-----7b---------------------|-----5b---------------------|
D|----------------------------|----------------------------|
A|----------------------------|----------------------------|
E|----------------------------|----------------------------|
 
All of these repeated with slight variations throughout the entire song.
The intro chords come and go during the louder parts:

e|----------------------|----------------------|-------------------------|----------------------------|
B|----------------------|----------------------|-------------------------|----------------------------|
G|--12---12---12---12b--|--10---10---10b--10b--|--7----7----7----7--7\---|----5---5---5---5-----------|
D|--12---12---12---12b--|--10---10---10b--10b--|--7----7----7----7--7\---|----5---5---5---5-----------|
A|--10---10---10---10b--|--8----8----8b---8b---|--5----5----5----5--5\---|----3---3---3---3-----------|
E|----------------------|----------------------|-------------------------|----------------------------|
 

************************************

| b    Bend
| \    Slide down
| (n)  Ghost note

************************************

            
            
Suggest correction
Creating personal tab
Creating personal tab
You can edit any tab online and save it as your Personal.

You can edit, replace or remove any tab part or add personal notes – all changes will be seen only by you.

Personal tabs can be accessed anytime from any device, even offline.
Learn more »
Give kudos to tab author, rate the tab!
1 2 3 4 5
comments
print report bad tab
guest
You may want to rate the tab now too:
select rating
Wanna post a correction for this tab? Suggest correction