Oops, an error
Loading. Please wait.

Out Of Gas Tab

version 1
version 1

Whole song

Interactive

29,750 views 36 this week
3 commentsread comments
1 2 3 4 5
x 24
add to favorites
×
Save as Personal and add changes to this tab that will be seen only by you. Learn more ›
×
You can save this tab as Personal to edit and correct it or add notes. All changes will be seen only by you. Learn more »
save as personal
new!
launch autoscroll
font size
0
reset
how to read this tab
guitar tuner
Autoscroll
slow
fast
+/-
esc
set tempo
stop
OUT OF GAS - Modest Mouse

Tabbed by: Truly Ninja
Email: trulyninja@hotmail.com

Tuning:EADGBe

The entire song:
e|---------------------------------------------------------------------------|
B|---------------------------------------------------------------------------|
G|---------------------------------------------------------------------------|
D|--------7-------7----------------------------------------------------------|
A|----8-8---8-7-7---7--5-5-5h7-5/3-3-3-0-0-----------------------------------|
E|---------------------------------------------------------------------------|

Lyrics:
Out of Gas
Out of road
Out of car I don't know how I'm gonna go and
I had a drink of the day
Opinions were like kittens
I was giving them away and
I had a drink of the day
I had a lot to say
and I said

You will come down soon too
You will come down too soon



************************************

| h  Hammer-on
| /  Slide up

************************************
Suggest correction
comments
print report bad tab
3 comments total.
+2 reply
plucky 10 Jul 18, 2004 08:00 PM

I learned this song another way and it sems to soud the same and is easier to play.
same notes just diferent place

--------------------------------------------------------
--------------------------------------------------------
----2--------2------------------------------------------
-33---3---22---2-----00---0h2p0-------------------------
----------------------------------33--00----------------
--------------------------------------------------------
thats it you can probably figure it out from that
sorry if its abit crude but its my first tab.

+2 reply
weirdsprout 10 Jan 26, 2008 06:31 PM

My only problem with this tab is that is not the whole song, during 0:31 to 1:04, and 1:34 to 2:08 (the two choruses) a
slightly different riff plays. I'm not really any good at figuring things out, or I'd tab it up myself. Otherwise good
tab though.

0 reply
TheBeigeStripes 65 Mar 21, 2015 11:37 AM

For the chorus section it sounds like he is strumming down up down instead of alternating the two notes, so instead of picking for the chorus you just strum.

guest
You may want to rate the tab now too:
select rating
Wanna post a correction for this tab? Suggest correction