Oops, an error
Loading. Please wait.

Paper Thin Walls bass

version 2
version 2

Whole song

Interactive

5,197 views 3 this week
no commentswrite comment
1 2 3 4 5
x 3
add to favorites
×
Save as Personal and add changes to this tab that will be seen only by you. Learn more ›
×
You can save this tab as Personal to edit and correct it or add notes. All changes will be seen only by you. Learn more »
launch autoscroll
font size
0
reset
guitar tuner
edit
Autoscroll
slow
fast
+/-
esc
set tempo
stop
PAPER THIN WALLS
(bass tab)
by Modest Mouse

Tab by Devin Miller
email irish__nugget@hotmail.com

---LEGEND---

| /  slide up
| \  slide down
| h  hammer-on
| p  pull-off

--------------------INTRO--------------------

(begins after 2 bars of guitar)

G|---------------------------|
D|-------7-------------------|
A|-5-----------7-----5--7\---|
E|-----5-----5-----5---------|


--------------------VERSE--------------------

G|------------------------|--------------------------|
D|------------------------|-------7------------------|
A|-----4-7-7---------4--7-|-5-----------7-----5--7\--|
E|-5-----------5---7------|-----5-----5-----5--------|

variation:
G|---------------------------|--------------------------|
D|---------------------4-----|-------7------------------|
A|-----4-7-7-------4-7---7-4-|-5-----------7-----5--7\--|
E|-5-----------5-------------|-----5-----5-----5--------|

(x 5)


--------------------INTERLUDE ("Laugh hard..")--------------------

G|---------------|---------------|----------------|
D|---------------|---------------|---------7------|
A|---7-----7-----|---7-----7-----|-4-5------------|
E|-5-----5----5--|-5-----5----5--|-------5--------| x 4


--------------------CHORUS ("Tow the line...")--------------------

G|-----------------------------------------------|
D|---7------------------5------------------------|
A|---------7\-----2----------2------3------------|
E|-5-----5------3-----3--------2------3---3/5-5--| x 3


--------------------BRIDGE--------------------

(begins after 2 bars of guitar)

G|---------------------------|
D|-------7-------------------|
A|-5-----------7-----5--7\---|
E|-----5-----5-----5---------|


--------------------VERSE--------------------

G|------------------------|--------------------------|
D|------------------------|-------7------------------|
A|-----4-7-7---------4--7-|-5-----------7-----5--7\--|
E|-5-----------5---7------|-----5-----5-----5--------|

variation:
G|---------------------------|--------------------------|
D|---------------------4-----|-------7------------------|
A|-----4-7-7-------4-7---7-4-|-5-----------7-----5--7\--|
E|-5-----------5-------------|-----5-----5-----5--------|

(x 5)


--------------------INTERLUDE ("Laugh hard..")--------------------

G|---------------|---------------|----------------|
D|---------------|---------------|---------7------|
A|---7-----7-----|---7-----7-----|-4-5------------|
E|-5-----5----5--|-5-----5----5--|-------5--------| x 1


--------------------CHORUS ("Tow the line...")--------------------

G|-----------------------------------------------|
D|---7------------------5------------------------|
A|---------7\-----2----------2------3------------|
E|-5-----5------3-----3--------2------3---3/5-5--| x 2

G|---------------------------------------------|
D|---7------------------5----------------------|
A|---------7\-----2----------2------3----------|
E|-5-----5------3-----3--------2---------------| x 1

Feb. 28, 2007
============================================================================
Suggest correction
Creating personal tab
Creating personal tab
You can edit any tab online and save it as your Personal.

You can edit, replace or remove any tab part or add personal notes – all changes will be seen only by you.

Personal tabs can be accessed anytime from any device, even offline.
Learn more »
Give kudos to tab author, rate the tab!
1 2 3 4 5
comments
print report bad tab
guest
You may want to rate the tab now too:
select rating
Wanna post a correction for this tab? Suggest correction