Oops, an error
Loading. Please wait.

Parting Of The Sensory tab

version 1
version 1

Whole song

28,983 views 24 this week
10 commentsread comments
1 2 3 4 5
x 7
add to favorites
×
Save as Personal and add changes to this tab that will be seen only by you. Learn more ›
×
You can save this tab as Personal to edit and correct it or add notes. All changes will be seen only by you. Learn more »
launch autoscroll
font size
0
reset
how to read this tab
guitar tuner
edit
Autoscroll
slow
fast
+/-
esc
set tempo
stop
parting of the sensory by modest mouse

tuning: standard

chord progression: A, G, F

Verses

e---------------------------|
b--10----8----6--8-8--6-----|
g--9-----7----5--7-7--5-----|
d--7-----5----3--5-5--3-----|
a--0-----0----0--0-0--0-----|
E---------------------------|

Chorus

e---------------|
b---------------|
g---------------|
d--7---5---3----|
a--7---5---3----|
E--5---3---1----|

Post chorus

e-------------------------------------|
b-------------------------------------|
g------2-0---5-0---7-5---7/9/7-5------|
d--2-0---------------------------7----|
a-------------------------------------|
E-------------------------------------|
Suggest correction
Creating personal tab
Creating personal tab
You can edit any tab online and save it as your Personal.

You can edit, replace or remove any tab part or add personal notes – all changes will be seen only by you.

Personal tabs can be accessed anytime from any device, even offline.
Learn more »
comments
print report bad tab
10 comments total. Showing first comments.
+1 reply
choppsdigity 10 Apr 05, 2007 01:51 AM

hey i dont think this is right, its just a simple pentatonic run for the part you called the "post chorus" or whatever.

Think box form, you know, A minor pent.

here's my makeshift tab, should be right on:

----------------------------------------------------------------------
----------------------------------------------------------------------
----------------5---------7----5-----7 slide 9 slide 7 pulloff 5------
------7----5---------7----------------------------------------------7-
----------------------------------------------------------------------
--5-------------------------------------------------------------------

don't forget to hit the root note (A) at the end on the fourth string. btw, that is a great CD, cheers!

0 reply
Mr_Trig 10 Feb 03, 2008 06:39 AM

I think the post chours goes

----------------------------
----------------------------
------2--5-2-7-5-7/9/7/5----
-2-0---3-----------------7--
----------------------------
----------------------------

-2 reply
oXygEn_WaSteR 308 Apr 21, 2011 10:27 PM

Mr_Trig's version sounds more accurate to me. There's no slide or pull off from the 7-9.

guest
Wanna post a correction for this tab? Suggest correction