Oops, an error
Loading. Please wait.

Pups To Dust intro tab

version 2
version 2

Intro

Whole song

655 views 3 this week
1 commentread comment
1 2 3 4 5
x 3
add to favorites
×
Save as Personal and add changes to this tab that will be seen only by you. Learn more ›
×
You can save this tab as Personal to edit and correct it or add notes. All changes will be seen only by you. Learn more »
launch autoscroll
font size
0
reset
how to read this tab
guitar tuner
edit
Autoscroll
slow
fast
+/-
esc
set tempo
stop
Difficulty
I'm terrible with tabs, but chances are you know how the song goes if you're looking this up. Good luck
figuring out the rest.

e-------------------------------------------------------------------|
B------------------------10------12p10------------------------------|
G------7---6h7--9---9h11----11---------11p9h11p9--7p6h7/9\7p6-------|
D--7h9--------------------------------------------------------7--0--|
A-------------------------------------------------------------------|
E-------------------------------------------------------------------|


e------------------------------------------------|
B-----------------------------0------------------|
G---------7--0---6h7--7--7/9---------------(x3)--|
D--7h9--9----------------------------------------|
A------------------------------------------------|
E------------------------------------------------|


e--------|
B--{7}b--|
G--{7}b--|
D--{7}b--|
A--------|
E--------|

This is just to get you started.

            
            
Suggest correction
Creating personal tab
Creating personal tab
You can edit any tab online and save it as your Personal.

You can edit, replace or remove any tab part or add personal notes – all changes will be seen only by you.

Personal tabs can be accessed anytime from any device, even offline.
Learn more »
Give kudos to tab author, rate the tab!
1 2 3 4 5
comments
print report bad tab
1 comment total.
0 reply
kidsantab 18 Aug 11, 2015 11:44 AM

Sounds great! Really good job.

guest
Wanna post a correction for this tab? Suggest correction