Oops, an error
Loading. Please wait.

Satin In A Coffin Tab

version 1
version 1

Whole song

4,867 views 3 this week
2 commentsread comments
1 2 3 4 5
x 5
add to favorites
×
Save as Personal and add changes to this tab that will be seen only by you. Learn more ›
×
You can save this tab as Personal to edit and correct it or add notes. All changes will be seen only by you. Learn more »
save as personal
new!
launch autoscroll
font size
0
reset
how to read this tab
guitar tuner
Autoscroll
slow
fast
+/-
esc
set tempo
stop
Author
MODEST MOUSE
Good News For People Who Love Bad News
"Satin In A Coffin"
Tabbed By Garrett Gold (Yugugelizer)

The Intro Is Really A Banjo

Part 1
E |-----------------------|
B |--------------------8--|
G |------5-7-5---5--------|
D |5-7-8-------8---8-5---5|
A |-----------------------|
E |-----------------------|

Part 2
E |-------------------|
B |----------------8--|
G |------5-7-5--------|
D |5-7-8-------8-5---5|
A |-------------------|
E |-------------------|

Part 3
E |3-1-0-1|
B |3-1-0-1|
G |4-2-1-2|
D |5-3-2-3|
A |5-3-2-3|
E |3-1-0-1|

Part 4
E |-----------------------------------|
B |-----------------------------------|
G |7---7------------------------------|
D |--8---8-7---7---12----12----7---7--|
A |----------8---8----13----13---8---8|
E |-----------------------------------|

Part 5
E |---------------|
B |--6-4-------4--|
G |7-----7-5-7---7|
D |---------------|
A |---------------|
E |---------------|

Part 6
E |-------|
B |8-6-4-3|
G |-------|
D |-------|
A |-------|
E |-------|

Part 7
E |---------|
B |---------|
G |---------|
D |3-5-3-1-0|
A |---------|
E |---------|

PART ORDER
1 1   1 1                         1 1
 2 2   2 2                         2 2
             3 
             44
              55555555 5X2 5X2  
                       6    6       6
                                     7
Suggest correction
comments
print report bad tab
2 comments total.
0 reply
LastRockShow 191 Jan 07, 2005 07:00 PM

This might be easier for part one:

Part 1
E |---------------------3----|
B |---------3----------------|
G |-----3h5---5p3-5p3--------|
D |-3h5---------------5---5--|
A |--------------------------|
E |--------------------------|

Sounds right and works easier for me.

0 reply
CrosseGod18 464 Jan 10, 2006 01:07 PM

Not bad at all, I'm impressed, nice job dude 5 stars

guest
You may want to rate the tab now too:
select rating
Wanna post a correction for this tab? Suggest correction