Oops, an error
Loading. Please wait.

So Much Beauty In Dirt tab

4,387 views 1 this week
2 commentsread comments
1 2 3 4 5
x 4
add to favorites
×
Save as Personal and add changes to this tab that will be seen only by you. Learn more ›
×
You can save this tab as Personal to edit and correct it or add notes. All changes will be seen only by you. Learn more »
launch autoscroll
font size
0
reset
how to read this tab
guitar tuner
edit
Autoscroll
slow
fast
+/-
esc
set tempo
stop
Author
Difficulty
This is what they during the second verse. They play it 6 times. I'm pretty sure that 
is correct, but I'm not perfect, so if you have any corrections, please let me know.

e|--------------------------0----------------------------------------------|
B|--------3---2h3-------3-----3---3----------------------------------------|
G|------2---2-----2---2---2-----2------------------------------------------|
D|----4-------------4------------------------------------------------------|
A|-------------------------------------------------------------------------|
E|-------------------------------------------------------------------------|
Suggest correction
Creating personal tab
Creating personal tab
You can edit any tab online and save it as your Personal.

You can edit, replace or remove any tab part or add personal notes – all changes will be seen only by you.

Personal tabs can be accessed anytime from any device, even offline.
Learn more »
comments
print report bad tab
2 comments total.
0 reply
onlymodestmouse 2,350 Nov 17, 2006 03:29 PM

sounds really good just a few notes need to be added between here and there

0 reply
shamus88 10 Nov 12, 2014 04:23 PM

e|------------------------------0----------------------------------------------|
B|--------3---2h3-----------3-----3---3----------------------------------------|
G|------2---2-----2---2---2---2-----2------------------------------------------|
D|----4-------------4---4------------------------------------------------------|
A|-----------------------------------------------------------------------------|
E|-----------------------------------------------------------------------------|

guest
You may want to rate the tab now too:
select rating
Wanna post a correction for this tab? Suggest correction