Oops, an error
Loading. Please wait.

Spitting Venom tab

version 1
version 1

Whole song

Interactive

13,504 views 3 this week
1 commentread comment
1 2 3 4 5
x 4
add to favorites
×
Save as Personal and add changes to this tab that will be seen only by you. Learn more ›
×
You can save this tab as Personal to edit and correct it or add notes. All changes will be seen only by you. Learn more »
launch autoscroll
font size
0
reset
how to read this tab
guitar tuner
edit
Autoscroll
slow
fast
+/-
esc
set tempo
stop
Author
Difficulty
tabbed by: MastaCheefa

Intro/verse:

E|-|-----------------------------|-|    play each set 4x        
B|-|-----------------------------|-|
G|-|-----------------------------|-|
D|-|---7-----10-----5-----3------|-|
A|-|---7-----10-----5-----3------|-|
E|-|-5-----8------3-----1--------|-|

Chorus:

E|-|---------------------------------------------------------------|
B|-|---------------------------------------------------------------|
G|-|-------5-5-5-5---7b-7b--5----5-5--x--12-12-12-12--10-9-10-9-7--|
D|-|-7-7-------------------------5-5--x----------------------------|
A|-|-7-7---3-3-3-3---5b-5b--3----3-3--x--10-10-10-10--8--7-8--7-5--|
E|-|-5-5-----------------------------------------------------------|

E|-|--------------------------------------------------------| repeat 4x
B|-|--------------------------------------------------------|
G|-|---------5/7-7-7-7--5--4-5-7----------------------------|
D|-|-5-5-x-------------------------3-3-5-5-7-7-9-9----------|
A|-|-5-5-x---3/5-5-5-5--3--2-3-5----------------------------|
E|-|-3-3-x-------------------------1-1-3-3-5-5-7-7----------|

then chords: A-C-G-F

Repeat chorus

Transition piece: Sounds best if played using octaves.

E|-|------------------------------------------------------------------------------------|
B|-|------------------------------------------------------------------------------------|
G|-|------------------------------------------------------------------------------------|
D|-|---------------------------------------------3-3-2-2-3-3-5-5-7-7-5-5-7-7-9-9-10-10--|
A|-|-------------------------3-3-5-5-3-3-5-5-7-7----------------------------------------|
E|-|-1-1-3-3-5-5-7-7-5-5-7-7------------------------------------------------------------|






            
            
Suggest correction
Creating personal tab
Creating personal tab
You can edit any tab online and save it as your Personal.

You can edit, replace or remove any tab part or add personal notes – all changes will be seen only by you.

Personal tabs can be accessed anytime from any device, even offline.
Learn more »
comments
print report bad tab
1 comment total.
0 reply
Kristofff 152 Jul 13, 2007 01:19 PM

it's ok by it's only like 1/4 of the song, a little short.

guest
You may want to rate the tab now too:
select rating
Wanna post a correction for this tab? Suggest correction