Oops, an error
Loading. Please wait.

Spitting Venom bass

version 2
version 2

Whole song

Interactive

1,944 views 1 this week
4 commentsread comments
1 2 3 4 5
2 more votes to show rating
add to favorites
×
Save as Personal and add changes to this tab that will be seen only by you. Learn more ›
×
You can save this tab as Personal to edit and correct it or add notes. All changes will be seen only by you. Learn more »
launch autoscroll
font size
0
reset
guitar tuner
edit
Autoscroll
slow
fast
+/-
esc
set tempo
stop
----------------------------------------------------------------------------
                   SPITTING VENOM - Modest Mouse
----------------------------------------------------------------------------

Tabbed By: AJ (lunchboxturtle)
Email: a.j.brush@hotmail.com


   This is my first tab, and it seems ritual to say so, so there.
I was devastated (did i spell that wrong?) when nobody had even tried to tab this the way
Eric plays it, so i took my time to make
this tab for all you Modest Mouse-loving Bass players, like me.
   Sorry if the timing's off, but its a tab, not sheet music, so deal with it.
The bass is somewhat hard to hear, i suggest wearing heaphones so you can actually hear 
and listening to the rhythyms will help.

Intro: Guitar

1:28:heavy intro:

G|------------------------------------------|
D|14--12---10--9h10--12--14---11--9---------|
A|-----------------------------------10--9--|
E|------------------------------------------|

G|----------------------------------|
D|11--9---------------------6-6-8-8-|
A|------11--9-8-9-8-8-10-10---------|
E|----------------------------------|

Play until:

1:59
"Hold on to what you need..."

G|-----------------------------------------------------------|
D|14-12--10----------10-12--14-------------------------------|
A|---------12-12-12-12---------------------------------------|
E|---------------------------11-11-11-11-10-10-10-10-10-10-10|

G|----------------|x2
D|----------------|
A|----------------|
E|8-8-8-8-8-8-8-8-|

{Play the riff at 1:28, with this added every other time}

G|----------------------------8-8-10-10-8-8-10-10-|
D|6-6-8-8-9-9-11-11-9-9-11-11---------------------|
A|------------------------------------------------|
E|------------------------------------------------|

G|12-12-14-14-12-12-14-14-16-16-17-17|
D|-----------------------------------|
A|-----------------------------------|
E|-----------------------------------|

That's it, for up to the vague Jam.

Here's a somewhat general progression that seems to work for me, and a base to improvise on.

{All whole notes}
G|-------------------|
D|-----^9------------|
A|10--------9--------|
E|--------------12---|

^=Bend

That's about all i can do for ya, complain to me in the comments section only, please.

            
            
Suggest correction
Creating personal tab
Creating personal tab
You can edit any tab online and save it as your Personal.

You can edit, replace or remove any tab part or add personal notes – all changes will be seen only by you.

Personal tabs can be accessed anytime from any device, even offline.
Learn more »
Give kudos to tab author, rate the tab!
1 2 3 4 5
comments
print report bad tab
4 comments total. Showing first comments.
-1 reply
eyeeatdogs 16 Mar 12, 2009 01:44 PM

Fag

-1 reply
lunchboxturtle 30 Mar 12, 2009 01:47 PM

Thanks, Ryan. By the way, this fag here, "eyeeatdogs" sucks balls and takes it in the butt. But anyway, thank you. Oh, and his real name is Ryan. How gay. We're such *******s to each other, in case you haven't noticed.

0 reply
monkeys26 146 Apr 06, 2010 06:47 AM

You´re very inconsistent with your key signature. One moment, you´re tabbing in the correct key, then you suddenly drop a half-step or something. The song is in C major, and I´m fairly certain that nobody in the entire band breaks from that at any point in the entire song.

guest
You may want to rate the tab now too:
select rating
Wanna post a correction for this tab? Suggest correction