Oops, an error
Loading. Please wait.

Styrofoam Boots Tab

version 1
version 1

Whole song

32,281 views 27 this week
5 commentsread comments
1 2 3 4 5
x 12
add to favorites
launch autoscroll
font size
0
reset
how to read this tab
guitar tuner
×
Best way to learn
"Styrofoam Boots"
Autoscroll
slow
fast
+/-
esc
set tempo
stop
Modest Mouse
tabbed by: Milesdizzogg

e|---3-----3---------------3-----3----------------3------3-------------
B|---0-----0---------------0-----0----------------0------0-------------
G|---0-----0------2h0------0-----0-2h0------------0------0--------2h0-0
D|-------------2h0--------------------2h0----------------------2h0-----
A|2-----2--------------2------2----------2h0---2------2-----2----------
E|3-----3-----3------0-3------3----------------3------3-----3----------

e|-------------------------[]
A|-------------------------[]
D|-2h0---------------------[]
G|----2h0-----------2-0----[]
B|-------2h0-2h0-2---------[]
E|----------------------0--[]repeat

strum:
e|-3-| then |-3-|
A|-3-|      |-3-|   
D|-0-|      |-0-|
G|-0-|      |-2-|  
B|-2-|      |-2-|
E|-3-|      |-0-|
Suggest correction
comments
print report bad tab
5 comments total. Showing first comments.
0 reply
SunburstSFX3 10 Mar 02, 2008 04:45 PM

When you say 2h0 do you mean 2p0?

+4 reply
stale 259 Sep 30, 2008 07:08 AM

None of the three tabs have the fill right

-----------------------
-----------------------
-3p0-2p0-----------2p0-
---------3p0-2p0-3-----
-----------------------
-----------------------

0 reply
Poodles 51 May 05, 2011 08:39 AM

Actually, the fill is this.

-----------------------
-----------------------
-2p0---------------2p0-
-----3p0-2p0-2p0-3-----
-----------------------
-----------------------

If you listen to the song, you can tell the difference.

guest
You may want to rate the tab now too:
select rating
Wanna post a correction for this tab? Suggest correction