Oops, an error
Loading. Please wait.

Talking Shit About A Pretty Sunset Tab

version 1
version 1

Whole song

Interactive

26,350 views 12 this week
1 commentread comment
1 2 3 4 5
x 4
add to favorites
launch autoscroll
font size
0
reset
how to read this tab
guitar tuner
×
Best way to learn
"Talking Shit About A Pretty Sunset"
Autoscroll
slow
fast
+/-
esc
set tempo
stop
Author
Talking Shit About a Pretty Sunset - Modest Mouse

Tabbed by: Jwrussert
Email: Jwrussert@gmail.com

Tuning: EADGBe

Intro:
   E5   G#5   F#5   E5
e|----------------------|
B|----------------------|
G|-9----13----11----9---|
D|-9----13----11----9---|
A|-7----11----9-----7---|
E|----------------------|
  It sounds best if you start the first E5 with a down stroke(toward the 1st string) and 
second E5 with an up stroke (towards the 6th string).  Or maybe I'm just crazy.

Continue to play this progression with a different strumming pattern throughout most of 
song.

Solo (1:40 into the song):
 Palm Mute
e|-------------------------------|
B|-12-9h10h12-12-9h10h12-12-10-9-|
G|-9--9-------9--9-------9--9--9-| x2
D|-------------------------------|
A|-------------------------------|
E|-------------------------------|

Play that twice and then this:

   Harmonics                  Palm Mute  Harmonics
e|-+12+12+-------+12+12+-----------------+12+12+-------+12+12+-----|
B|--------+12+12+--------+12+-12-9-10-7---------+12+12+------------|
G|-----------------------------------------------------------------| x2
D|------------------------------------------------------------12---|
A|-----------------------------------------------------------------|
E|-----------------------------------------------------------------|

Then repeat the entire solo one more time and then go back into the intro chords. After 
them for a while start playing this next part which starts at about 2:43 minutes into 
song.

Talking shit...
e|--------------------------------------------------|
B|----12----12----12----12---8---8------------------|
G|-12----12----11----11----9---9---------8h10-8h10--| repeat this a
D|---------------------------------11-11------------| bunch of times
A|--------------------------------------------------|
E|--------------------------------------------------|

Then Isaac Brock just repeats this a bunch of times and then goes off on a bunch of 
things that are pretty much based on this.


| /  slide up
| \  slide down
| h  hammer-on
| p  pull-off
| ~  vibrato
| +  harmonic
| x  Mute note
Suggest correction
comments
print report bad tab
1 comment total.
0 reply
EkoFriendly 10 Jan 24, 2014 01:45 AM

That last section should be:

Talking shit...
e|--------------------------------------------------|
B|----12----12----12----12---7---7---5-5h7-5h7------|
G|-13----13----11----11----8---8---6----------------| repeat this a
D|--------------------------------------------------| bunch of times
A|--------------------------------------------------|
E|--------------------------------------------------|

:)

guest
You may want to rate the tab now too:
select rating
Wanna post a correction for this tab? Suggest correction