Oops, an error
Loading. Please wait.

The View Bass Tab

version 1
version 1

Whole song

Interactive

5,919 views 3 this week
2 commentsread comments
1 2 3 4 5
x 4
add to favorites
launch autoscroll
font size
0
reset
guitar tuner
Autoscroll
slow
fast
+/-
esc
set tempo
stop
Help us to improve Ultimate-Guitar.com Take our survey!
×
Difficulty
novice
one of my better tabs, the other two wern't exactly accurate, but this one is

e,a,d,g

timing is all out, but u should be able to figure it out from listening to the song, its pretty easy

verse, intro ***be careful in song at point where he says stop, you stop (surprisingly)***

g --------|--------|--------|--------|
d --------|5-3-2-0-|7-------|3h5-3---|
a 0-2-3-2-|--------|--------|--------|
e --------|--------|--------|--------|


chorus

g --------|--------|--------|--------|
d --------|--------|2-------|3-------|
a 3-------|5-------|--------|--------|
e --------|--------|--------|--------|

g --------|--------|--------|--------|
d --------|--------|--------|--------|
a 3-------|5-------|--------|----3-5-|
e --------|--------|0-------|1-------|

(on chorus before breakdown)

chorus

g --------|--------|--------|--------|
d --------|--------|2-2-2---|3-3-3-3-|
a 3-3-3-3-|5-5-5-5-|--------|--------|
e --------|--------|--------|--------|

and so on


breakdown

                   
g --------|--------| add notes here  |
d 2-----5-|--------| add notes here  |
a --------|3-------| add notes here  |
e --------|--------| add notes here  |


work out the bit after, its easy


then chorus again till end



happy playing, 


please email my errors, (or that bit im not sure on)
Suggest correction
comments
print report bad tab
2 comments total.
0 reply
nedearb124 10 Mar 15, 2012 01:54 PM


g --------|--------|-----------------|
d 2-----5-|--------|5p3-2------------|
a --------|3-------|-----------------|
e --------|--------|-----------------|

+1 reply
hcates 30 Jun 05, 2013 07:45 PM

g 2-----5-|--------|10p9-7-----------|
d --------|3-------|5p3-2------------|
a --------|--------|-----------------|
e --------|--------|-----------------|

it should be on g string, otherwise its the wrong key

guest
You may want to rate the tab now too:
select rating
Wanna post a correction for this tab? Suggest correction