Oops, an error
Loading. Please wait.

The Whale Song bass

version 1
version 1

Whole song

17,430 views 6 this week
2 commentsread comments
1 2 3 4 5
x 13
add to favorites
×
Save as Personal and add changes to this tab that will be seen only by you. Learn more ›
×
You can save this tab as Personal to edit and correct it or add notes. All changes will be seen only by you. Learn more »
launch autoscroll
font size
0
reset
guitar tuner
edit
Autoscroll
slow
fast
+/-
esc
set tempo
stop
Author
Song: The Whale Song
Artist: Modest Mouse
Album: Autumn Beds
Tabbed by: Anthony Guidotti

Pretty much this the whole song, but sometimes it varies
G|---------------------------------------|
D|--10\----6-6-3/5--6-6-3/5--3-3---3/5/10|
A|------3------------------------6-------|
E|---------------------------------------|

Variation 1
G|---------------------------------------|
D|10-10\---6-6-3/5--8-8-3/5--3-3---3/5/10|
A|------3------------------------6-------|
E|---------------------------------------|

Variation 2
G|---------------------------------------|
D|-------------3/5--6-6-3/5--3-3---3/5/10|
A|-3---3--6-6--------------------6-------|
E|---------------------------------------|

Variation 3
G|---------------------------------------|
D|-------------3/5--8-8-3/5--3-3---3/5/10|
A|-3---3--6-6--------------------6-------|
E|---------------------------------------|

Variation 4

            
            
Suggest correction
Creating personal tab
Creating personal tab
You can edit any tab online and save it as your Personal.

You can edit, replace or remove any tab part or add personal notes – all changes will be seen only by you.

Personal tabs can be accessed anytime from any device, even offline.
Learn more »
comments
print report bad tab
2 comments total.
0 reply
A-nasty 10 Dec 19, 2009 06:01 AM

the album name is actually "No One's First, and You're Next"
Just sayin'

+1 reply
Metallicazx 10 Feb 25, 2010 10:04 AM

^ Also came on the "Autumn Beds" EP.

guest
You may want to rate the tab now too:
select rating
Wanna post a correction for this tab? Suggest correction