Oops, an error
Loading. Please wait.

Trailer Trash tab

version 3
version 3

Whole song

Interactive

4,428 views 3 this week
no commentswrite comment
1 2 3 4 5
3 more votes to show rating
add to favorites
×
Save as Personal and add changes to this tab that will be seen only by you. Learn more ›
×
You can save this tab as Personal to edit and correct it or add notes. All changes will be seen only by you. Learn more »
launch autoscroll
font size
0
reset
how to read this tab
guitar tuner
edit
Autoscroll
slow
fast
+/-
esc
set tempo
stop
Author
Difficulty
Trailer Trash
Modest Mouse
Tabbed By Peter (grubepeter@yahoo.com)

Intro

--------------------------------------------------------------------------|
--------------------------------------------------------------------------|
-----4--4----4----4---------------------------------------4--4----4---4---|
---5----5--5---5--5---4--4----4----4----2--2----2----2--5----5--5---5-----|
--------------------5----5--5---5--5--3----3--3---3--3--------------------|
--------------------------------------------------------------------------|

Theme 1

            Eating snowflakes . . .
------15-------15-------15----10-------10-------10---|
---------12-------12-------10----8--10----8--10------|
---12-------12-------12------------------------------|
-----------------------------------------------------|
-----------------------------------------------------|
-----------------------------------------------------|


---8------8------8---8------8------8---|
-8---8--8---8--8---8---8--8---8--8-----|
---------------------------------------|  4x
---------------------------------------|
---------------------------------------|
---------------------------------------|


Theme 2 (These are the notes but you’ll
         have to listen to the CD to get
         the rhythm.)

-------------------------------------------------------------------|
-------------------------------------------------------------------|
---12--------------------------------------------------------------|   4x
------12--12----10--9--10--10--9--10--9--10--9--10--10--9--10--9---|
-------------------------------------------------------------------|
-------------------------------------------------------------------|

Transition (Again, this is just roughly the
            rhythm, listen and you’ll pick it up)

---------------------------------------------------------------------|
---------------------------------------------------------------------|
---12----------------------------------------------------------------|   1x
------12--12----10--9--9--10--9--10--9--10--9--10--9--10--9--10--9---|
---------------------------------------------------------------------|
---------------------------------------------------------------------|

Solo (This sound good with light distortion)

----------------------------------------------------|
----------------------------------------------------|
---12--14--12--12--9--12----12--14--12--12--9--12---|
----------------------------------------------------|
----------------------------------------------------|
----------------------------------------------------|

----------------------------------------------------|
----------------------------------------------------|
----------------------------------------------------|
---12--14--12--12--9--12----12--14--12--12--9--12---|
----------------------------------------------------|
----------------------------------------------------|

---------------------------------------------|
---------------------------------------------|
---------------------------------------------|
---12--10--9--10--9----12--10--9--10--9------|
--------------------10------------------10---|
---------------------------------------------|

-------------------------------------------|
-------------------------------------------|
-------------------------------------------|
---12--10--9--10--9----10--9----10--9------|
--------------------10-------10-------10---|
-------------------------------------------|

Brock goes on but it’s basically the same stuff, so I'm not gonna tab it out.

            
            
Suggest correction
Creating personal tab
Creating personal tab
You can edit any tab online and save it as your Personal.

You can edit, replace or remove any tab part or add personal notes – all changes will be seen only by you.

Personal tabs can be accessed anytime from any device, even offline.
Learn more »
Give kudos to tab author, rate the tab!
1 2 3 4 5
comments
print report bad tab
guest
You may want to rate the tab now too:
select rating
Wanna post a correction for this tab? Suggest correction