Oops, an error
Loading. Please wait.
We have an official Wild Pack Of Family Dogs tab made by UG professional guitarists. Check out the tab »
×
1,449 views 1 this week
1 commentread comment
1 2 3 4 5
1 last vote to show rating
add to favorites
×
Save as Personal and add changes to this tab that will be seen only by you. Learn more ›
×
You can save this tab as Personal to edit and correct it or add notes. All changes will be seen only by you. Learn more »
launch autoscroll
font size
0
reset
how to read this tab
guitar tuner
edit
Autoscroll
slow
fast
+/-
esc
set tempo
stop
Author
-------------------------------------------------------------------------------
        Wild Pack of Family Dogs
-------------------------------------------------------------------------------
Tabbed by:Russ
Email:smeatloaf@gmail.com

Tuning: Standard

This is a tweak of some of the existing tabs.  I watched Mr. Brock play this in concert 
the 4th row, so I'm pretty sure about it.

    C     G
e|--------------------------------------------------------------------------|
B|--------------------------------------------------------------------------|
G|-5-5-5--------5-5-5-4-5-5/7\5-4-0-----------------------------------------|
D|-5-5-5-5-5----5-5---------------------------------------------------------|
A|-3-3-3-5-5----3-3---------------------------------------------------------|
E|-------3-3----------------------------------------------------------------|

Just Alternate Between the C and G power chords for the whole song, adding the little 
on the G string when there ain't no singin.

| /  slide up
| \  slide down
| h  hammer-on
| p  pull-off
| ~  vibrato
| +  harmonic
| x  Mute note
===============================================================================

            
            
Suggest correction
Creating personal tab
Creating personal tab
You can edit any tab online and save it as your Personal.

You can edit, replace or remove any tab part or add personal notes – all changes will be seen only by you.

Personal tabs can be accessed anytime from any device, even offline.
Learn more »
Give kudos to tab author, rate the tab!
1 2 3 4 5
comments
print report bad tab
1 comment total.
0 reply
CMM 1,011 Mar 31, 2005 07:00 PM

It isn't just a straight C5 chord he plays. Instead theres a maj 7th thrown in there on top of it, then followed by open strings. (Or just the top two notes of the G5 chord) This makes for that transition between the C5 and G5 chords. I posted this in the M&A tab, but no one seems to look in those things.

e|----------------|
B|----------------|
G|--5--4--0-------|
D|--5--5--0--5--5-|
A|--3--3-----5--5-|
E|-----------3--3-|

guest
You may want to rate the tab now too:
select rating
Wanna post a correction for this tab? Suggest correction