Oops, an error
Loading. Please wait.

Youre The Good Things tab

version 1
version 1

Whole song

6,209 views 3 this week
no commentswrite comment
1 2 3 4 5
x 3
add to favorites
×
Save as Personal and add changes to this tab that will be seen only by you. Learn more ›
×
You can save this tab as Personal to edit and correct it or add notes. All changes will be seen only by you. Learn more »
launch autoscroll
font size
0
reset
how to read this tab
guitar tuner
edit
Autoscroll
slow
fast
+/-
esc
set tempo
stop
Author
-------------------------------------------------------------------------------
                             YOU'RE THE GOOD THINGS - Modest Mouse
-------------------------------------------------------------------------------
Tabbed by: Chris Leisz
Email: reducedfatcreamy@yahoo.com

Tuning: Standard

Album: Everywhere and His Nasty Parlour Tricks

intro:
e|---------------------|
B|---------------------|
G|---------------------|
D|---------------------|
A|--9-6-4-5/9--9-6-----|
E|---------------------|

verse:
e|---------------------------------------------------------------------------|
B|---------------------------------------------------------------------------|
G|--9xxx9xxx9----------------------------------------------------------------|
D|--9xxx9xxx9----------------------------------------------------------------|
A|--7xxx7xxx7--9-6-4-5/9--9-6------------------------------------------------|
E|---------------------------------------------------------------------------|

pre-chorus:
e|---------------------------------------------------------------------------|
B|---------------------------------------------------------------------------|
G|--9xxx9xxx9--7-7777-7-7777-------------------------------------------------|
D|--9xxx9xxx9--7-7777-7-7777-------------------------------------------------|
A|--7xxx7xxx7--9-9999-9-9999-------------------------------------------------|
E|---------------------------------------------------------------------------|

chorus:
e|---------------------------------------------------------------------------|
B|---------------------------------------------------------------------------|
G|--6-6666--9-9999--6-6666--4-4444----------6~~~7~~~6~~~4~~~---------6~~~7~~~|
D|--6-6666--9-9999--6-6666--4-4444---(10x)--6~~~7~~~6~~~4~~~---(2x)--6~~~7~~~|
A|--4-4444--7-7777--4-4444--2-2222----------4~~~9~~~4~~~2~~~---------4~~~9~~~|
E|---------------------------------------------------------------------------|

post-chorus
e|---------------------|
B|---------------------|
G|---------------------|
D|---------------------|
A|--9-6-4-5/9--9-6-----|
E|---------------------|

verse:
e|---------------------------------------------------------------------------|
B|---------------------------------------------------------------------------|
G|--9xxx9xxx9----------------------------------------------------------------|
D|--9xxx9xxx9----------------------------------------------------------------|
A|--7xxx7xxx7--9-6-4-5/9--9-6------------------------------------------------|
E|---------------------------------------------------------------------------|

This is not the whole song.
After this part i can't figure it out,
but if anyone is willing to figure out the other part of
the song and e-mail it to me, i would more than gladly give you credit.

Lyrics:
You were right I"m hangin' 'round because
Light & sound won't separate us from them
You were right I'm underground because
Slight of hand won't separate your body from the dirt you're standing on
today
You're the good things yeah that's you...
You're the icing on the cake on the table at my wake
You're the extra ton of cash on my sinking life raft
You're the loud sound of fun when I'm trying to sleep
You're the flowers in my house when my allergies come out
You're the good things...
And help's ain't short when you're diggin' your grave
I'll help you dig it
So you're diggin' your grave now you're speakin' my language 
I'll help you dig it

| /  slide up
| \  slide down
| h  hammer-on
| p  pull-off
| ~  vibrato
| +  harmonic
| x  Mute note
===============================================================================

            
            
Suggest correction
Creating personal tab
Creating personal tab
You can edit any tab online and save it as your Personal.

You can edit, replace or remove any tab part or add personal notes – all changes will be seen only by you.

Personal tabs can be accessed anytime from any device, even offline.
Learn more »
Give kudos to tab author, rate the tab!
1 2 3 4 5
comments
print report bad tab
guest
You may want to rate the tab now too:
select rating
Wanna post a correction for this tab? Suggest correction