Oops, an error
Loading. Please wait.

Snake tab

version 1
version 1

Whole song

Interactive

1,134 views 3 this week
no commentswrite comment
1 2 3 4 5
1 last vote to show rating
add to favorites
×
Save as Personal and add changes to this tab that will be seen only by you. Learn more ›
×
You can save this tab as Personal to edit and correct it or add notes. All changes will be seen only by you. Learn more »
launch autoscroll
font size
0
reset
how to read this tab
guitar tuner
edit
Autoscroll
slow
fast
+/-
esc
set tempo
stop
Author
Difficulty
Unregistered
intermediate
-------------------------------------------------------------------------------
                             Snake - Modestep
-------------------------------------------------------------------------------
Tabbed by: LRWINATOR - Twitter.com/Lrwinator - YouTube.com/c/irwinatoruk
E-mail: theirwinator@yahoo.com

Tuning: Standard.

LISTEN TO THE SONG FOR RHYTHM. This is for my cover, which is slightly different
but sounds more of less the same! Cover is on my channel!

Intro

e|---------------------------------------------------------------------------|
B|---------------------------------------------------------------------------|
G|---------------------------------------------------------------------------|
D|---------------------------------------------------------------------------|
A|-----------------------------------------0-3-4-5-----0-5-6-7---------------|
E|--0-0-3-0-3----0-0-6-5-3----0-0-3-0-3--------------------------------------|

PLAY THE ABOVE 4 TIMES.

- Nothing for the first verse.

----

Pre-Chorus
- I have no idea how to tab rhythms or any idea on how much I play each note so
  what I am doing is writing the notes I play and you can use the song to play
  what you like -

e|---------------------------------------------------|-----------------------|
B|---------------------------------------------------|-----------------------|
G|---------------------------------------------------|-----------------------|
D|---------------------------------------------------|-----------------------|
A|---------------------------------------------------|-----------------------|
E|---0----7--0----5--0----7-0-5-3-0-5-0-3-2-3-2-3----|-----------------------|

PLAY THE ABOVE TWICE

-----

Chorus

e|---------------------------------------------------------------------------|
B|---------------------------------------------------------------------------|
G|---------------------------------------------------------------------------|
D|--2-2-2------9----------7----------8---------------------------------------|
A|--2-2-2------7-slide to-5-slide to-6---------------------------------------|
E|--0-0-0--------------------------------------------------------------------|

PLAY THE ABOVE FOUR TIMES

-----

Back to the intro riff play this once then, theres a variation of the riff which
I don't use and just use the main riff nonstop when I play this song live

e|---------------------------------------------------------------------------|
B|---------------------------------------------------------------------------|
G|---------------------------------------------------------------------------|
D|---------------------------------------------------------------------------|
A|-----------------------------------------0-3-4-5-----0-5-6-7---------------|
E|--0-0-3-0-3----0-0-6-5-3----0-0-3-0-3--------------------------------------|

PLAY ABOVE FOUR TIMES however on the fourth play the part below

e|---------------------------------------------------------------------------|
B|---------------------------------------------------------------------------|
G|---------------------------------------------------------------------------|
D|----------------------------5---7------------------------------------------|
A|----------------------------3---5------------------------------------------|
E|--0-0-3-0-3----0-0-6-5-3---------------------------------------------------|

-----

SECOND VERSE... This is easy, I'm just gonna give you the chords and you can
work it out!

e|---------------------------------------------------------------------------|
B|---------------------------------------------------------------------------|
G|---------------------------------------------------------------------------|
D|--2----5----7--8--7--------------------------------------------------------|
A|--2----5----7--8--7--------------------------------------------------------|
E|--0----3----5--6--5--------------------------------------------------------|

PLAY ABOVE TWICE

-----

Pre-Chorus
- I have no idea how to tab rhythms or any idea on how much I play each note so
  what I am doing is writing the notes I play and you can use the song to play
  what you like -

e|---------------------------------------------------|-----------------------|
B|---------------------------------------------------|-----------------------|
G|---------------------------------------------------|-----------------------|
D|---------------------------------------------------|-----------------------|
A|---------------------------------------------------|-----------------------|
E|---0----7--0----5--0----7-0-5-3-0-5-0-3-2-3-2-3----|-----------------------|

PLAY THE ABOVE TWICE

----

Chorus

e|---------------------------------------------------------------------------|
B|---------------------------------------------------------------------------|
G|---------------------------------------------------------------------------|
D|--2-2-2------9----------7----------8---------------------------------------|
A|--2-2-2------7-slide to-5-slide to-6---------------------------------------|
E|--0-0-0--------------------------------------------------------------------|

PLAY THE ABOVE FOUR TIMES

----

e|---------------------------------------------------------------------------|
B|---------------------------------------------------------------------------|
G|---------------------------------------------------------------------------|
D|---------------------------------------------------------------------------|
A|------------------------------0-3-4-5-----0-5-6-7--------------------------|
E|--0-0-0-6-5-3----0-0-3-0-3-------------------------------------------------|

Then repeat the main riff till the end

e|---------------------------------------------------------------------------|
B|---------------------------------------------------------------------------|
G|---------------------------------------------------------------------------|
D|---------------------------------------------------------------------------|
A|-----------------------------------------0-3-4-5-----0-5-6-7---------------|
E|--0-0-3-0-3----0-0-6-5-3----0-0-3-0-3--------------------------------------|

----

VERY VERY END PART

e|---------------------------------------------------------------------------|
B|---------------------------------------------------------------------------|
G|--5----7----9--------------------------------------------------------------|
D|--5----7----9--------------------------------------------------------------|
A|--3----5----7--------------------------------------------------------------|
E|---------------------------------------------------------------------------|


And there you pretty much have my tab... My cover is on YouTube as stated earlier
so go check that out if you wish...

************************************

            
            
Suggest correction
Creating personal tab
Creating personal tab
You can edit any tab online and save it as your Personal.

You can edit, replace or remove any tab part or add personal notes – all changes will be seen only by you.

Personal tabs can be accessed anytime from any device, even offline.
Learn more »
Give kudos to tab author, rate the tab!
1 2 3 4 5
comments
print report bad tab
guest
Wanna post a correction for this tab? Suggest correction