Oops, an error
Loading. Please wait.

Snake tab

version 2
version 2

Whole song

Interactive

484 views 6 this week
no commentswrite comment
1 2 3 4 5
x 4
add to favorites
×
Save as Personal and add changes to this tab that will be seen only by you. Learn more ›
×
You can save this tab as Personal to edit and correct it or add notes. All changes will be seen only by you. Learn more »
launch autoscroll
font size
0
reset
how to read this tab
guitar tuner
edit
Autoscroll
slow
fast
+/-
esc
set tempo
stop
Author
How I feel is the most accurate way to play the song. Some intricate parts missing in the intro riff and verse
later on in the song, feel free to add them.

Standard Tuning
/ = slide up
\ = slide down

Intro:

e|---------------------------------------------------------------------------|
B|---------------------------------------------------------------------------|
G|---------------------------------------------------------------------------|
D|---------------------------------------------------------------------------|
A|-----------------------------------------3-4-5---5-6-7\1-------------------|
E|-0-0-3-0-3----0-0-5-4-3----0-0-3-0-3---0-------0---------------------------| x4

(Don't play slide on the last time through)

No guitar during verses, but for sake of being bored during these parts here is the guitar version of the bass,
sounds best palm muted:

Verse:

e|---------------------------------------------------------------------------|
B|---------------------------------------------------------------------------|
G|---------------------------------------------------------------------------|
D|---------------------------------------------------------------------------|
A|---------------------------------------------------------------------------|
E|-0-0-0-0-0-0-0-0-3-3-3-3-3-3-3-3-5-5-5-5-5-5-5-5-8-8-8-8-7-7-7-7-----------| x2
           Slipping right through your fingers...   


Pre Chorus:

e|---------------------------------------------------------------------------|
B|---------------------------------------------------------------------------|
G|---------------------------------------------------------------------------|
D|---------------------------------------------------------------------------|
A|---------------------------------------------------------------------------|
E|-0-0-0-0-0-0-0-0-7-0-0-0-0-0-0-0-5-0-0-0-0-0-0-0-3-0-0-0-0-0-0-0-0---------| x2
           Let's make this understood...
Chorus:

e|---------------------------------------------------------------------------|
B|---------------------------------------------------------------------------|
G|---------------------------------------------------------------------------|
D|-------------------------6/7--7/8--9---------------------------------------|
A|-2-------2-------2-------4/5--5/6--7---------------------------------------|
E|-0-------0-------0---------------------------------------------------------| x4
      You're just a snake...   

(Don't play last note on the last time through)

Intro
(Two chords played at the end of 4th time through):
e|----------------|
B|----------------|
G|----------------|
D|---5------7-----|
A|---3------5-----|
E|----------------|

Verse

Pre Chorus

Chorus

Intro until end, and then -

Outro:

e|---------------------------|
B|---------------------------|
G|---------------------------|
D|---5--------7-------9------|
A|---3--------5-------7------|
E|---------------------------|

            
            
Suggest correction
Creating personal tab
Creating personal tab
You can edit any tab online and save it as your Personal.

You can edit, replace or remove any tab part or add personal notes – all changes will be seen only by you.

Personal tabs can be accessed anytime from any device, even offline.
Learn more »
comments
print report bad tab
guest
You may want to rate the tab now too:
select rating
Wanna post a correction for this tab? Suggest correction