Oops, an error
Loading. Please wait.

Lady Hear Me Tonight bass

version 2
version 2

Whole song

  • The song is a hit made in France so... cette versi... Show more

Interactive

by Modjo
373 views 3 this week
no commentswrite comment
1 2 3 4 5
3 more votes to show rating
add to favorites
×
Save as Personal and add changes to this tab that will be seen only by you. Learn more ›
×
You can save this tab as Personal to edit and correct it or add notes. All changes will be seen only by you. Learn more »
launch autoscroll
font size
0
reset
guitar tuner
backing track
0:00
0:00
edit
Autoscroll
slow
fast
+/-
esc
set tempo
stop
About this tab version
The song is a hit made in France so... cette version est celle que je joue avec mon groupe de Rock LIVE. Parfaitement adpatee et respectueuse de l'originale electronique. Was this info helpful? Yes No
LADY (hear me tonight)
MODJO (2000) 
(written and performed by vocalist Yann Destagnol and producer Romain Tranchart)
Tuning: EADG – BASS LINE
Tempo : 126 bpm  –   KEY: Bb
 
Intro:00:08 (Bass starts)
G------------|------------|------------|------------|
D------------|------------|------------|------------|
A--------8---|--------8---|--------8---|--------8---|
E-6r-6-----6-|-6r-6-----6-|-6r-6-----6-|-6r-6-----6-|BbBbBbBb
 
G------------|------------|------------|------------|
D------------|------------|--------8---|--------8---|
A--------4---|--------4---|-6r-6-----6-|-6r-6-----6-|    D≠D≠
E-2r-2-----2-|-2r-2-----2-|------------|------------|F≠F≠
 
VERSE 1: 00:23
G------------|------------|------------|------------|
D------------|------------|------------|------------|
A--------8---|--------8---|--------8---|--------8---|
E-6r-6-----6-|-6r-6-----6-|-6r-6-----6-|-6r-6-----6-|BbBbBbBb
Lady hear me tonight
Coz' my feeling is just so right
 
G------------|------------|------------|--------------|
D------------|------------|--------8---|----8h-6------|
A--------4---|--------4---|-6r-6-----6-|-6r------8-6r-|   D≠D≠
E-2r-2-----2-|-2r-2-----2-|------------|--------------|F≠F≠
As we dance by the moonlight
Can't you see you're my delight
              
VERSE 2: 00:39
G------------|------------|------------|------------|
D------------|------------|------------|------------|
A--------8---|--------8---|--------8---|--------8---|
E-6r-6-----6-|-6r-6-----6-|-6r-6-----6-|-6r-6-----6-|BbBbBbBb
Lady I just feel like
I won't get you out of my mind
 
G------------|------------|------------|--------------|
D------------|------------|--------8---|----8h-6------|
A--------4---|--------4---|-6r-6-----6-|-6r------8-6r-|   D≠D≠
E-2r-2-----2-|-2r-2-----2-|------------|--------------|F≠F≠
 I feel love for the first time
And I know that it is true
I can tell by the look in your eyes
INSTRUMENTAL: 00:53
G------5--3--|------5--3--|------------|------------|
D----3-----3-|----3-----3-|------6--4--|------6-4-3-|
A-1r---------|-1r---------|----4-----4-|----4-------|BbBb
E------------|------------|-2r---------|-2r---------|     F≠F≠
 
G------------|------------|------5--3--|------5--3--|
D-1r---3--1--|-1r---3--1--|----3-----3-|----3-----3-|D≠D≠
A----1-----1-|----1-----1-|-1r---------|-1r---------|     BbBb
E------------|------------|------------|------------|

 …

G------5--3--|------5--3--|------------|------------|
D----3-----3-|----3-----3-|------6--4--|------6-4-3-|
A-1r---------|-1r---------|----4-----4-|----4-------|BbBb
E------------|------------|-2r---------|-2r---------|     F≠F≠
 
G------------|------------|------------|------------|
D-1r---3--1--|-1r---3--1--|------3-----|------------|D≠D≠
A----1-----1-|----1-----1-|----3---3-4-|------------|
E------------|------------|-1r---------|-1-1-1-1-1r-|   FFFFF
 

VERSE 3: 01:23
G------------|------------|------------|------------|
D------------|------------|------------|------------|
A--------8---|--------8---|--------8---|--------8---|
E-6r-6-----6-|-6r-6-----6-|-6r-6-----6-|-6r-6-----6-|BbBbBbBb
Lady hear me tonight
Coz' my feeling is just so right
 
G------------|------------|------------|--------------|
D------------|------------|--------8---|----8h-6------|
A--------4---|--------4---|-6r-6-----6-|-6r------8-6r-|   D≠D≠
E-2r-2-----2-|-2r-2-----2-|------------|--------------|F≠F≠
 As we dance by the moonlight
Can't you see you're my delight
 

VERSE 4: 01:39
G------------|------------|------------|------------|
D------------|------------|------------|------------|
A--------8---|--------8---|--------8---|--------8---|
E-6r-6-----6-|-6r-6-----6-|-6r-6-----6-|-6r-6-----6-|BbBbBbBb
Lady I just feel like
I won't get you out of my mind
G------------|------------|------------|--------------|
D------------|------------|--------8---|----8h-6------|
A--------4---|--------4---|-6r-6-----6-|-6r------8-6r-|   D≠D≠
E-2r-2-----2-|-2r-2-----2-|------------|--------------|F≠F≠
 I feel love for the first time
And I know that it is true
I can tell by the look in your eyes
 

INSTRUMENTAL 2: 01:54
G------5--3--|------5--3--|------------|------------|
D----3-----3-|----3-----3-|------6--4--|------6-4-3-|
A-1r---------|-1r---------|----4-----4-|----4-------|BbBb
E------------|------------|-2r---------|-2r---------|     F≠F≠
 
G------------|------------|------5--3--|------5--3--|
D-1r---3--1--|-1r---3--1--|----3-----3-|----3-----3-|D≠D≠
A----1-----1-|----1-----1-|-1r---------|-1r---------|     BbBb
E------------|------------|------------|------------|
 
...
 
G------5--3--|------5--3--|------------|------------|
D----3-----3-|----3-----3-|------6--4--|------6-4-3-|
A-1r---------|-1r---------|----4-----4-|----4-------|BbBb
E------------|------------|-2r---------|-2r---------|     F≠F≠
 
G------------|------------|------------|------------|
D-1r---3--1--|-1r---3--1--|------3-----|------------|D≠D≠
A----1-----1-|----1-----1-|----3---3-4-|------------|
E------------|------------|-1r---------|-1-1-1-1-1r-|   FFFFF

VERSE 5 (vocal part): 02:25 (BASS OPTIONAL)
G------------|------------|------------|------------|
D------------|------------|------------|------------|
A--------8---|--------8---|--------8---|--------8---|
E-6r-6-----6-|-6r-6-----6-|-6r-6-----6-|-6r-6-----6-|BbBbBbBb
Lady hear me tonight
Coz' my feeling is just so right
 
G------------|------------|------------|--------------|
D------------|------------|--------8---|----8h-6------|
A--------4---|--------4---|-6r-6-----6-|-6r------8-6r-|   D≠D≠
E-2r-2-----2-|-2r-2-----2-|------------|--------------|F≠F≠
 As we dance by the moonlight
 Can't you see you're my delight.

G------------|------------|------------|------------|
D------------|------------|------------|------------|
A--------8---|--------8---|--------8---|--------8---|
E-6r-6-----6-|-6r-6-----6-|-6r-6-----6-|-6r-6-----6-|BbBbBbBb
Lady I just feel like
I won't get you out of my mind
 
G------------|------------|------------|--------------|
D------------|------------|--------8---|----8h-6------|
A--------4---|--------4---|-6r-6-----6-|-6r------8-6r-|   D≠D≠
E-2r-2-----2-|-2r-2-----2-|------------|--------------|F≠F≠
 I feel love for the first time
And I know that it is true
I can tell by the look in your eyes
 
REPRISE: 02:56 (REPEAT TILL FADING)
G------5--3--|------5--3--|------------|------------|
D----3-----3-|----3-----3-|------6--4--|------6-4-3-|
A-1r---------|-1r---------|----4-----4-|----4-------|BbBb
E------------|------------|-2r---------|-2r---------|     F≠F≠
 
G------------|------------|------5--3--|------5--3--|
D-1r---3--1--|-1r---3--1--|----3-----3-|----3-----3-|D≠D≠
A----1-----1-|----1-----1-|-1r---------|-1r---------|     BbBb
E------------|------------|------------|------------|
Lady hear me tonight
Coz' my feeling is just so right
 
Finale: repeat xx
G------5--3--|------5--3--|------------|------------|
D----3-----3-|----3-----3-|------6--4--|------6-4-3-|
A-1r---------|-1r---------|----4-----4-|----4-------|BbBb
E------------|------------|-2r---------|-2r---------|     F≠F≠
 
G------------|------------|------5--3--|------5--3--|
D-1r---3--1--|-1r---3--1--|----3-----3-|----3-----3-|D≠D≠
A----1-----1-|----1-----1-|-1r---------|-1r---------|     BbBb
E------------|------------|------------|------------|
 
Lady I just feel like .............
I feel love for the first time .............
Lady hear me tonight .............
Can't you see you're my delight ......... 

. . . FADING OUT

End : 03:44

            
            
Suggest correction
Creating personal tab
Creating personal tab
You can edit any tab online and save it as your Personal.

You can edit, replace or remove any tab part or add personal notes – all changes will be seen only by you.

Personal tabs can be accessed anytime from any device, even offline.
Learn more »
Give kudos to tab author, rate the tab!
1 2 3 4 5
comments
print report bad tab
guest
You may want to rate the tab now too:
select rating
Wanna post a correction for this tab? Suggest correction